Le Tigre - Deceptacon Chords & Tabs

 

Deceptacon Chords & Tabs

Le Tigre Chords & Tabs

Version: 4 Type: Tab 0 ratings
1 star 2 stars 3 stars 4 stars 5 stars
comments

Deceptacon Tab

-------------------------------------------------------------------------------
			   Deceptcon - Le Tigre 
-------------------------------------------------------------------------------
Tabbed by: DAMO
Email:paper_tigers@hotmail.com

Tuning: Standard

Main Riff
e|---------------------------------------------------------------------------|
B|---------------------------------------------------------------------------|
G|---------------------------------------------------------------------------|
D|---------------------------------------------------------------------------|
A|-----------------------7-7-7-7-0-5-5-5-5-5-0-------------------------------|
E|-7-7-7-7-7-0-5-5-5-5-5-0---------------------------------------------------|
[ Tab from: http://www.guitartabs.cc/tabs/l/le_tigre/deceptacon_tab_ver_4.html ]
Lead Riff
e|-7-7-5-7-7-7-7-4-7-7-7-7-7-7-7-7-7-9-7-7-----------------------------------|
B|---------------------------------------------------------------------------|
G|---------------------------------------------------------------------------|
D|---------------------------------------------------------------------------|
A|---------------------------------------------------------------------------|
E|---------------------------------------------------------------------------|

Lead Riff 2 -Tremolo Pick
e|-7-5-12-10-5-7-------------------------------------------------------------|
B|---------------------------------------------------------------------------|
G|---------------------------------------------------------------------------|
D|---------------------------------------------------------------------------|
A|---------------------------------------------------------------------------|
E|---------------------------------------------------------------------------|

Synth Sounding Lead Part
e|---------------------------------------------------------------------------|
B|---------------------------------------------------------------------------|
G|-7-4-7-7-7-4-7-7-7-4-7-4-7-4-7-4-7-4---------------------------------------|
D|---------------------------------------------------------------------------|
A|---------------------------------------------------------------------------|
E|---------------------------------------------------------------------------|
Comments