Le Tigre - Deceptacon Chords & Tabs

 

Deceptacon Chords & Tabs

Le Tigre Chords & Tabs

Version: 2 Type: Bass Tab 0 ratings
1 star 2 stars 3 stars 4 stars 5 stars
comments

Deceptacon Bass Tab

song: Deceptacon
artist: Le Tigre
tuning: standard
tabber: chris barry

play this throughout the whole song except for when the bass stops
and its only the singing and drums...youll hear it.
[ Tab from: http://www.guitartabs.cc/tabs/l/le_tigre/deceptacon_btab_ver_2.html ]
G||-------------------------------------------------------------------------|
D||-----------------------3-3-33---1-1111111--------------------------------|
A||-3-3-33---1-1111111-------3----------------------------------------------|
E||---------3---------------------------------------------------------------|

enjoy.

you can also play it like this

G||----------------------------------------|
D||----------------------------------------|
A||-----------------7-7-7705-5555555-------|
E||-7-7-7705-5555555-----------------------|

i prefer the first one but its up to you

have fun.
Comments