Le Tigre - Deceptacon Chords & Tabs

 

Deceptacon Chords & Tabs

Le Tigre Chords & Tabs

Version: 1 Type: Bass Tab 0 ratings
1 star 2 stars 3 stars 4 stars 5 stars
comments

Deceptacon Bass Tab

   
----------------------------------------------------------------------------
			     Le Tigre - deceptacon 
----------------------------------------------------------------------------

Tabbed By :plastic man in hi-fi 
e-mail: 

Tuning: normal

I've only heard this song once but I noticed it was the bass in the backround
playing a pretty basic riff: here it is
[ Tab from: http://www.guitartabs.cc/tabs/l/le_tigre/deceptacon_btab.html ]
G|-------------------------------------------------------------------------|
D|--------------------5-5-5503-33-33---------------------------------------|
A|---5-5-5503-33-33-0------------------------------------------------------|
E|-------------------------------------------------------------------------|


G|-------------------------------------------------------------------------|
D|--------------------5-5-5503-33-33---------------------------------------|
A|---5-5-5503-33-33-0------------------------------------------------------|
E|-------------------------------------------------------------------------|
Comments