Lcd Soundsystem - Tribulations Chords & Tabs

 

Tribulations Chords & Tabs

Lcd Soundsystem Chords & Tabs

Version: 1 Type: Bass Tab

Tribulations Bass Tab

Really love this song is easy to play. Two different ways to play it. First is just to play the root notes:


G|-------------------------------------------|
D|-------------------------------------------|
A|22222222----------55555555-0000-1111-------|
E|---------22222222--------------------------|

Just repeat all the way through the song.
[ Tab from: http://www.guitartabs.cc/tabs/l/lcd_soundsystem/tribulations_btab.html ]
The 2nd (and proper way to play, though slightly more difficult) is to play the root and octave alternatley:

G|-4-4-4-4-----------7-7-7-7--2--2--3-3-------------------|
D|----------4-4-4-4---------------------------------------|
A|2-2-2-2-----------5-5-5-5--0-0---1-1--------------------|
E|---------2-2-2-2----------------------------------------| 

Again just repeat all the way through and there you go!


This is my first tab so please rate and go easy on me!