Lawrence Arms - Porno And Snuff Films Chords & Tabs

 

Porno And Snuff Films Chords & Tabs

Lawrence Arms Chords & Tabs

Version: 1 Type: Tab 0 ratings
1 star 2 stars 3 stars 4 stars 5 stars
comments

Porno And Snuff Films Tab

Porno And Snuff Films

This song isn't there best, buts its one the of the easiest
You'll have to work out the rhythem yourself
Sorry I don't know the quiet bit after the bridge, I think it's some harmonics but I suck at.

stuff like that

Enjoy
Graham 

Intro/Verse/Chorus
[ Tab from: http://www.guitartabs.cc/tabs/l/lawrence_arms/porno_and_snuff_films_tab.html ]
E-------------
B-------------
G--------5----
D----5---5----
A----5---3----
E----3--------

Pre-Chorus

E-------------
B-------------
G-----7---5---
D-----7---5---
A-----5---3---
E-------------

Bridge

E-------------
B-------------
G-----5-----7-
D--5--5--5--7-
A--5--3--5--5-
E--3-----3----

Song Order
Intro
Verse
Pre-Chorus
Chorus
Verse
Pre-Chorus
Chorus
Bridge
Chorus
Bridge
Finish On D--5-
          A--5-
          E--3-
Comments