Lawrence Arms - 100 Resolutions Chords & Tabs

 

100 Resolutions Chords & Tabs

Lawrence Arms Chords & Tabs

Version: 1 Type: Bass Tab 0 ratings
1 star 2 stars 3 stars 4 stars 5 stars
comments

100 Resolutions Bass Tab

   
Band - The Lawrence Arms
Song - 100 Resolutions

intro:
G-----------------------------1-1----------------1-1-1-1-------------------|
D-2-2---------------2-2-1-2-4-----4-4--2-2-1-2-4---------------------------|
A-----0-2-2-2-2-2-2--------------------------------------------------------|
E--------------------------------------------------------2-2-2-2-2-2-2-2-2-|
                                                                pm..........

G-----------------------------------------------------------------------|
D-----------------------------------------------------------------------|
A---------------------------------------2-2-2-2-2-2-2-2-2-2-2-2-2-2-2-2-|
E-2-2-2-4-4-4-4-4-4-4-4-4-4-4-4-4-4-4-4---------------------------------|


G-----------------------------------------------------------------------|
D-----------------------------------------------------------------------|
A-----------------------2-2-2-2-2-2-2-2---------------------------------|
E-2-2-2-4-4-4-4-4-4-4-4-----------------0-0-0-0-0-0-0-0-2-2-2-2-2-2-2-2-|


G---------------------------------------------------------------------------|
D---------------------------------------------------------------------------|
A-2-2-2-2-2-2-2-2-----------------------------------------------------------|
E-----------------4-4-4-4-4-4-4-4-2-2-2-2-2-2-2-2-0-0-0-0-0-0-0-0-0-0-0-0-0-|


G-----------------------------------------------------------------|
D-----------------------------------------------------------------|
A-2-2-2-2-2-2-2-2-2-2-2-2-2-2-2-2---------------------------------|
E---------------------------------0-0-0-0-0-0-0-0-0-0-0-0-0-0-0-0-|


G-----------------------------------------------------------------|
D---------------------------------2-2-2-2-2-2-2-2-2-2-1-1---------|
A-2-2-2-2-2-2-2-2-2-2-2-2-2-2-2-2-------------------------4-4-2-2-|
E-----------------------------------------------------------------|


G-------------------------------------------------------------|
D-------------------------------------------------------------|
A-2-2-2-2-2-2-2-2-2-2-2-2-2-2-2-2-----------------------------|
E---------------------------------4-4-4-2-2-2-0-0-0-0-0-0-0-0-|

[ Tab from: http://www.guitartabs.cc/tabs/l/lawrence_arms/100_resolutions_btab.html ]
G---------------------------------|
D---------------------------------|
A---------------------------------|
E-0-0-0-0-0-0-0-0-2-2-2-2-2-2-2-2-|


G-8--6--4----8--6--4-----|
D-6--4--2----6--4--2-----|  slow
A------------------------|
E------------------------|


G-----------------------------------------------------------------|
D-----------------------------------------------------------------|
A-2-2-2-2-2-2-2-2-------------------------------------------------|
E-----------------2-2-2-2-2-2-2-2-4-4-4-4-4-4-4-4-0-0-0-0-0-0-0-0-|


G-----------------------------------------------------------------|
D-----------------------------------------------------------------|
A-2-2-2-2-2-2-2-2-------------------------------------------------|
E-----------------2-2-2-2-2-2-2-2-0-0-0-0-0-0-0-0-0-0-0-0-0-0-0-0-|


G----------------------------------|
D-------4-------4------------------|
A-2-2-2---2-2-2--------------------|
E------------------0-0-0-0-0-0-0-0-|


G-------------------------------------------------|
D-------------------------------------------------|
A-------------------------------------------------|
E-4-4-4-4-4-4-4-4-2-2-2-2-2-2-2-2-0-0-0-0-0-0-0-0-|


G-----------------------------------------------------------------|
D-----------------------------------------------------------------|
A---------------------------------2-2-2-2-2-2-2-2-2-2-2-2-2-2-2-2-|
E-0-0-0-0-0-0-0-0-2-2-2-2-2-2-2-2---------------------------------|


G-----------------------------------------------------------------|
D-----------------------------------------------------------------|
A---------------------------------2-2-2-2-2-2-2-2-----------------|
E-0-0-0-0-0-0-0-0-2-2-2-2-2-2-2-2-----------------0-0-0-0-0-0-0-0-|


G-----------------------------------------------------------------|
D-----------------------------------------------------------------|
A-----------------------------------------------------------------|
E-0-0-0-0-0-0-0-0-2-2-2-2-2-2-2-2-4-4-4-2-2-2-0-0-0-0-0-0-0-0-0-0-|


G-----------------------------------|
D-----------------------------------|
A---------------------------------2-|
E-0-0-0-0-0-0-0-0-2-2-2-2-2-2-2-2---|

Enjoy
Comments