Lawnmower Deth - Sumo Rabbit Chords & Tabs

 

Sumo Rabbit Chords & Tabs

Lawnmower Deth Chords & Tabs

Version: 1 Type: Tab 0 ratings
1 star 2 stars 3 stars 4 stars 5 stars
comments

Sumo Rabbit Tab

   
Here's the tab to one of the best tracks off the 1990 'Ooh Crikey it's
Lawnmower Deth' album. Not too dificult really !!

More info on the band can be found at http://www.shipley.ac.uk/north/deth/

Sumo Rabbit and his Inescapable Trap of Doom by Lawnmower Deth

E----------------------------------------------------------------
B----------------------------------------------------------------
G----------------------------------------------------------------
D-----5-------5-5---------5------5-5-----------------------------
A-----3-------3-3---------3------3-3-----------------------------
E-2222--222222-------2222--222222--------------------------------
 {     x 4     }  {     x 4     }    
           Chant:"Sumo Sumo Sumo....Whooa!)

E----------------------------------------------------------------
B----------------------------------------------------------------
G----------------------------------------------------------------
D-9-9-9/10-10----------------------------------------------------
A-7x7x7/-8--8--8-8-8\7-7-----------------------------------------
E--------------6-6-6\5-5-----------------------------------------
  {        x 4          }
 "When Sumo Rabbit...."

E----------------------------------------------------------------
B----------------------------------------------------------------
G----------------------------------------------------------------
D-6-------------------6----------------6----4--4-----------------
A-4-7--44443/4443/444-4-7-3333-333-333-4-7--2--2-----------------
E---5--22221/2221/222---5-111101110111---5-----------------------
      {             x 4        h   h      }
 "Sumo_Rabbit goes to nightclubs ..."
[ Tab from: http://www.guitartabs.cc/tabs/l/lawnmower_deth/sumo_rabbit_tab.html ]
E----------------------------------------------------------------
B----------------------------------------------------------------
G----------------------------------------------------------------
D----99----------99----------77----------77----------------------
A-------88-99-------88-99-------66-77-------66-77----------------
E-77----------77----------55----------55-------------------------
 {      x 6   (Cheers etc on 3rd time through)   }

E----------------------------------------------------------------
B----------------------------------------------------------------
G----------------------------------------------------------------
D-9-9-9/10-10----------------------------------------------------
A-7-7-7/-8--8--8-8-8\7-7-----------------------------------------
E--------------6-6-6\5-5-----------------------------------------
 {         x 4          }
 "Into the fighting ring..."

E----------------------------------------------------------------
B----------------------------------------------------------------
G----------------------------------------------------------------
D----------------------------------------------------------------
A-5-5--5-7-8--5-5--3-4-3------3-4-3--3-4-3-----------------------
E-3-3--3-5-6--3-3--1-2-1------1-2-1--1-2-1-----------------------
 {        x 4           }     {x 2 }     
                                     "Sumo"       

Lyrics:
When Sumo Rabbit was let out of his hutch
You couldn't believe a rabbit looked so butch
His muscles rippled, there is death within his eyes
Other forms of live things are things he does despise

Sumo Rabbit goes to nightclubs to kick some trendy ass
Then he'll have some lager so he can have the glass
Then without a warning, he'll crush it in his paw
Then without a flicker, he'll shove it in your jaw

Then he goes to the chinese to have some fuckin' chips
He starts by telling others that they are all fat bleeps
Then he has some food and won't pay for the bill
Then without a warning he'll go in for the kill

Sumo x8

Into the fighting ring to everyone's surprise
Sumo throws a rabbit turd between his opponent's eyes
With a shatter and an ear-splitting squeek
For his opponent it's the end of the fuckin' week

Sumo!

Tabbed by Craig
Comments