Lauren Wood - Fallen Chords & Tabs

 

Fallen Chords & Tabs

Lauren Wood Chords & Tabs

Version: 1 Type: Tab

Fallen Tab

   
#----------------------------------PLEASE NOTE---------------------------------#
#This file is the author's own work and represents their interpretation of the #
#song. You may only use this file for private study, scholarship, or research. #
#------------------------------------------------------------------------------#

Date: 11 March 2006
Song: Fallen by Lauren Wood
Transcribed by: John Hoac 

Note: Listen to song to get the general feel / vibe. Enjoy!

Part I:
[ Tab from: http://www.guitartabs.cc/tabs/l/lauren_wood/fallen_tab.html ]
	   D#	 D#/A# Cm7 Fm7 Fm7/A# D#
|-----------------------------------------|
|----------8~~~-8~~~---8~~~--9~~~9~~~-8~--|
|----------8~~~-8~~~---8~~~--8~~~8~~~-8~--|
|--5-6-8---8~~~-8~~~---8~~~--6~~~6~~~-8~--|
|--------6-6~~~--------10~~--8~~~-----6~--|
|-------------6---6-8-----8----6---6------|

Part II:

     G#    Gm    Cm7   A#    G#    Gm    Cm7	  G#/A#
|----------3-3---------------------3-3----------------|
|----4-4---3-3---4-4---5-5---4-4---3-3---4~~~~~-------|
|----5-5---3-3---5-5---6-6---5-5---3-3---3~~~~~---5~~-|
|----6-6---5-5---5-5---8-8---6-6---5-5---5~~~~~---6~~-|
|----------------3-3---8-8-----------------6-3----6~~-|
|----4-4---3-3---------6-6---4-4---3-3---------3--6~~-|