Latitude Blue - Ill Be Fine Chords & Tabs

 

Ill Be Fine Chords & Tabs

Latitude Blue Chords & Tabs

Version: 1 Type: Tab 0 ratings
1 star 2 stars 3 stars 4 stars 5 stars
comments

Ill Be Fine Tab

   
i'll be fine - latitude blue
Latitude Blue official website http://www.latitudeblue.co.uk
tabbed 14/03/04

By Jason Tait, Swindon, uk

This is my first tab so forgive me if its wrong, sounds right though

key:
b = bend
v = vibrato


Guitar solo's for i'll be fine.

1st solo

------------------------------------------------------------------------
-12---15-15-13-12-13-12--------------12----15-15-13-12-13-12------------
----9--------------------9-9-11-12-14----9b-------------------9-9-7-5-4-
------------------------------------------------------------------------
------------------------------------------------------------------------
------------------------------------------------------------------------



2nd & 3rd solo

------------------------------------------------------------------------
-12---15-15-13-12-13-12--------------12----15-15-13-12-13-12------------
----9--------------------9-9-11-12-14----9b-------------------9-9-7-5---
------------------------------------------------------------------------
------------------------------------------------------------------------
------------------------------------------------------------------------
[ Tab from: http://www.guitartabs.cc/tabs/l/latitude_blue/ill_be_fine_tab.html ]
------------------------------------------------------------------------
-13----13-----------------------13----13-----------------------13----13-
----14----14-9v-9v-9v-9v-9v-9v-----14----14-9v-9v-9v-9v-9v-9v-----14----
------------------------------------------------------------------------
------------------------------------------------------------------------
------------------------------------------------------------------------

------------------------------------------------------------------------
----------------------13----13------------------------------------------
-14-9v-9v-9v-9v-9v-9v----14----14-9v-9v-9v-9v-7-4-2-0-------------------
------------------------------------------------------2-----------------
------------------------------------------------------------------------
------------------------------------------------------------------------

Solo for second guitar played during the 3rd solo (before the vibrato section)

-------------------------5-5-7-10b-8-8-8-10b-8-10b-8-10b-8-10b-8-10b-10b hold-
-------------5-5-7-7-8-8------------------------------------------------------
-4-4-5-5-7-7------------------------------------------------------------------
------------------------------------------------------------------------------
------------------------------------------------------------------------------
------------------------------------------------------------------------------
Comments