Late - Hells Garden Chords & Tabs

 

Hells Garden Chords & Tabs

Late Chords & Tabs

Version: 1 Type: Bass Tab 0 ratings
1 star 2 stars 3 stars 4 stars 5 stars
comments

Hells Garden Bass Tab

   
This was placed under Foo Fighters so i just moved it so people can find it under late.


enjoy!

[ Tab from: http://www.guitartabs.cc/tabs/l/late/hells_garden_btab.html ]
G-------------------------------------------------------------|
D-------------------------------------------------------------|
A-------11-11-11-------11-11-11-------11-11-11-99999999-------|
E-11-11----------11-11----------11-11-------------------------|

G-------------------------------------------------------------|
D-------------------------------------------------------------|
A-------11-11-11-------11-11-11-------11-11-11-99999999-------|
E-11-11----------11-11----------11-11-------------------------|



J.B
Comments