Last In Line - Blind Chords & Tabs

 

Blind Chords & Tabs

Last In Line Chords & Tabs

Version: 1 Type: Tab 0 ratings
1 star 2 stars 3 stars 4 stars 5 stars
comments

Blind Tab

Intro Pt. 1
1-----------------------------------------------
2-----------------------------------------------
3-----------------------------------------------
4---5-5-5---------------------------------------
5---3-3-3-5-3-5-5-5-5-7-3--7-7-7-5-3-3-3-3-3----
6-------------3-3-3--------5-5-5-----1-1-1-1-X2- X2

Intro Pt. 2
1--------------------------------
2--------------------------------
3--------------------------------
4---5----------------------------
5---3-X8--5-----7-----3----------
6---------3-X8--5-X8--1-X8------- X2
[ Tab from: http://www.guitartabs.cc/tabs/l/last_in_line/blind_tab.html ]
Verse (Palm Muted)
1-----------------------------------
2-----------------------------------
3----------------5------------------
4---5------2-----3-X16--------------
5---3-X16--0-X16--------5-----------
6-----------------------3-X16------- X2

Chorus
1--------------------------------
2--------------------------------
3---5----------------------------
4---5------7------3------5-------
5---3-X16--7------3------5-------
6----------5-X16--1-X16--3-X16---

Solo
1---8-8-8-10-8--------10-12-8------------10-8-------
2--------------8-8-8-----------10-10-10--------6-X8-
3---------------------------------------------------
4---------------------------------------------------
5---------------------------------------------------
6--------------------------------------------------- X2

Intro Pt. 1
Intro Pt. 2
Verse
Chorus
Intro Pt. 1
Verse
Chorus
Solo
Intro Pt. 1
Intro Pt. 2
Verse
Chorus
Chorus
Chorus
Chorus
Intro Pt. 2
Intro Pt. 2
Bass Solo
Intro Pt. 1 
Intro Pt. 1
Comments