Last Days Of April - Will The Violins Be Playing Chords & Tabs

 

Will The Violins Be Playing Chords & Tabs

Last Days Of April Chords & Tabs

Version: 1 Type: Tab 0 ratings
1 star 2 stars 3 stars 4 stars 5 stars
comments

Will The Violins Be Playing Tab

newwer artist
GUITAR 2

intro
-----------------|
-----------------|
--999999---------|
--777777---------|
--000000---------|
-----------------|

Verse
----9-------------9----------|
10------10---10--------------|
--9---9----9----9---9--------|      16 times first time through
-----------------------------|
-----------------------------|
-----------------------------|
[ Tab from: http://www.guitartabs.cc/tabs/l/last_days_of_april/will_the_violins_be_playing_tab.html ]
Chorus
-12---------------------9---------------------------9----------|
----------10----9---10-------12-----12-----12-10------10-------|
------9------9--------9-----------9-----9----------------------|  6 times
--0------------------------------------------------------------|
---------------------------------------------------------------|
--------------------------------0------------------------------|
then play
-10------9-----------------------------------------|
-----10-----10---9--10-----------9-9-9-9-9-9-9-----|
------------------------9--------9-9-9-9-9-9-9-----|   PLay this once and
---------------------------7-----7-7-7-7-7-7-7-----|   then repeat the whole
---9-----------------------------7-7-7-7-7-7-7-----|   CHORUS again
---------------------------------------------------|

INTRO 1X
VERSE 16X
CHORUS 2X
VERSE 32X
CHORUS 2X
FIRST LINE OF THE CHORUS A FEW TIMES, then for the last time play the last line once
CHORUS till the end


words i keep in here.
thoughts that make me scared.
always seem to show.
your eyes let me know you know.
it's not you. it's all me.
as if me taking all the blame would make you feel much better now.
but all lights burn out.
what i'd like to say.
is that staying friends is okay.
but you and me we know.
that in one heart love would grow.
same time tomorrow.
when i wake up.
will the violins be playing.
when my heart finally opens.
will you be there to embrace me.
because it's all so crazy now.
it's all so fucked up now.
i always thought that i.
would find what i lack in you

I dedicate this song to my beautiful and beloved Liz I know is a break up song but its 
so beautiful LOVE YOU LIZ
Comments