Last 5 Minutes - From U 2 Me Chords & Tabs

 

From U 2 Me Chords & Tabs

Last 5 Minutes Chords & Tabs

Version: 1 Type: Bass Tab 0 ratings
1 star 2 stars 3 stars 4 stars 5 stars
comments

From U 2 Me Bass Tab

>From U 2 Me
Last 5 Minutes
Written by Joey and Dan
Lyrics by Bethany

Intro:
G---7---6---5---7---7---6---5---7----------------------------------
D---0---7---5---5---0---7---5---5----------------------------------
A------------------------------------------------------------------
E------------------------------------------------------------------

PreChorus:
G--------------------------------------------------------------------
D--------------------------------------------------------------------
A---55555---------------------5--55555-12-12-12-12-12--------------5-
E----------55555-3333-0-3333--------------------------3333-0-3333----

Chorus
G--------------------------------------------------------------------
D--------------------------------------------------------------------
A----5-0-5-0-5-0-5-5-0------5555--5-0-5-0-5-0-5-5-0------5555--------
E-------------------3333-------------------------3333----------------
[ Tab from: http://www.guitartabs.cc/tabs/l/last_5_minutes/from_u_2_me_btab.html ]
Verse:
G--------------------------------------------------------------------
D--------------------------------------------------------------------
A----5-5-5-----------------------------------------------------------
E----------5-5-5-3-3-3-5-5-5-----------------------------------------

Kool Thing
G--------------------------------------------------------------------
D--------------------------------------------------------------------
A---5-5-7-9-12-12-10-9-----------------------------------------------
E----------------------7-7-8-9-8-9-3-3-2-3-2-3-----------------------

Bridge
E-33333333-55555555--------------------------------------------------

Solo Thing
G---7---7---6---6---5---5---7---7------------------------------------
D-----0---0---7---7---5---5---5---5----------------------------------

Ending:
G---7- {Let This Ring}
D---0- {Let This Ring}
Order:
Intro 2x
Prechorus
Bridge
Chorus
Verse 8x
PreChorus
Chorus
Kool Thing 2x
Verse 8x
PreChorus
Chorus
Kool Thing 2x
Verse 8x
Bridge
Chorus
Kool Thing 2x
Solo Thing 4x
Ending

Tabbed By Mike Martin
(pilotmike_99@yahoo.com)

Comments