Lash - Take Me Away Chords & Tabs

 

Take Me Away Chords & Tabs

Lash Chords & Tabs

Version: 1 Type: Tab 0 ratings
1 star 2 stars 3 stars 4 stars 5 stars
comments

Take Me Away Tab

Tuning: Standard

Mute Chords

e  ---------------------------------------------
b  ---------------------------------------------
g  ---------------------------------------------
d  --4-4--4-4-4-4-4-4--4-4----------------------
a  --4-4--4-4-4-4-4-4--4-4----------------------
E  --2-2--2-2-2-2-2-2--2-2----------------------

Rhythm Verse Guitar

e  ---------------------------------------------
b  ---------------------------------------------
g  ---------------------------------------------
d  ---------------------------------------------
a  ------0-1-2-----3-2-0-2-2-1-0----------------
E  --2-2----------------------------------------

Chorus (Chords)

"Don't Want To Grow.."
[ Tab from: http://www.guitartabs.cc/tabs/l/lash/take_me_away_tab.html ]
e  ---------------------------------------------
b  ---------------------------------------------
g  --7-----4--2--7-----4--2---------------------
d  --7--4--4--2--7--4--4--2---------------------
a  --5--4--2--0--5--4--2--0----------------------
E  -----2-----------2---------------------------

Post-Chorus (Chord)

"Take..., Take.."

e  ---------------------------------------------
b  ---------------------------------------------
g  ---------------------------------------------
d  --6-6-6--------------------------------------
a  --4-4-4--------------------------------------
E  ---------------------------------------------

Solo

e  -----------------0-------0---0---------------
b  -----0-----0--/7---7---5---4-----------------
g  --3-----4------------------------------------
d  ---------------------------------------------
a  ---------------------------------------------
E  ---------------------------------------------

e  ----------------0--0----0---0----------------
b  -----0-----0--5-------7---7------------------
g  --3-----4------------------------------------
d  ---------------------------------------------
a  ---------------------------------------------
E  ---------------------------------------------
Comments