Las - Timeless Melody Chords & Tabs

 

Timeless Melody Chords & Tabs

Las Chords & Tabs

Version: 1 Type: Tab 0 ratings
1 star 2 stars 3 stars 4 stars 5 stars
comments

Timeless Melody Tab

   
The La's
Timeless Melody

G1: Guitar 1 (Lee Mavers)
G2: Guitar 2 (Peter Camell)

Chords Fingerings:
       E a d g b E
G      3 2 0 0 3 0
D      x x 0 2 3 2 
F      1 x 3 2 1 1
C      x 3 2 0 1 0
Em     0 2 2 0 0 0

G1 Intro: (You can basically play this open as G-C-G-C)
-|-10-10-10-10-10-10-|-10-10-10-10-10-10-|-10-10-10-10-10-10-|-10-10-10-10-10-10-|-
-|-10-10-10-10-10-10-|-10-10-10-10-10-10-|-10-10-10-10-10-10-|-10-10-10-10-10-10-|-
-|-12-12-12-12-12-12-|-10-10-10-10-10-10-|-12-12-12-12-12-12-|-10-10-10-10-10-10-|-
-|-12-12-12-12-12-12-|-10-10-10-10-10-10-|-10-10-10-10-10-10-|-10-10-10-10-10-10-|-
-|-10-10-10-10-10-10-|-10-10-10-10-10-10-|-10-10-10-10-10-10-|-10-10-10-10-10-10-|-
-|-10-10-10-10-10-10-|-10-10-10-10-10-10-|-10-10-10-10-10-10-|-10-10-10-10-10-10-|-
                                                                              
G2:
-|-------------------|-10v---------------|-------------------|-7v----------------|-
-|-8v----------------|-------------------|-------------------|-------------------|-
-|-------------------|-------------------|-9v----------------|-------------------|-
-|-------------------|-------------------|-------------------|-------------------|-
-|-------------------|-------------------|-------------------|-------------------|-
-|-------------------|-------------------|-------------------|-------------------|-
                                                                              
G1 Verse:
g        d      
A melody always finds me
F            C
Whenever the thought reminds me
g             d               F   C
Of breakin' a chain inside my hea-d
g        d
A melody chord unwinds me
F             C
The rhythm of life unties me
g            d            F   C
Brushing the sand of time awa-y

G2 Verse: (little riff that repeats throughout the verses)
-|---------------|-
-|--1--0--1--0---|-
-|--0--0--0--0---|-
-|--2--2--2--2---|-
-|--3--3--3--3---|-
-|---------------|-

G1 Chorus:
       Em           C
If you look in your mind
       g                  C
Do you know what you will find?
C
Open your mind
[ Tab from: http://www.guitartabs.cc/tabs/l/las/timeless_melody_tab.html ]
G2 Chorus: (w/ heavy delay)
------------|---------------------------------------------|-------------|-
------------|--0h1p0h1p0h1p0h1p0h1p0h1p0h1p0h1p0h1p0h1p0--|--------0-0--|-
------------|---------------------------------------------|----0-2------|-
------------|---------------------------------------------|--3----------|-
------------|---------------------------------------------|-------------|-
------------|---------------------------------------------|-------------|-
What you will find?               Open your mind..
                   
G1 Verse: (same as before)

G2 Verse: (same as before)

G1 Chorus: (same as before)

G1 Solo: g d F C g d F C

G2 Solo:
-|-0--------------------|-1--------------------|-0-----------------|-1---------------|-
-|-3--0-0-1-3-0-3-1-0---|-1------0-1-0-1-0-----|-3-----------------|-1-------------3-|-
-|-0------------------2-|-2--2-2-----------2-0-|-0----0-2-2b-2-0---|-2-2-2b3-2-0-----|-
-|-0--------------------|-3--------------------|-0---------------3-|-3-----------0---|-
-|-2--------------------|-x--------------------|-2-10/-------------|-x---------------|-
-|-3--------------------|----------------------|-3-----------------|-----------------|-
  g                     F                     g                  F

G1: Bridge
-|-10-10-10-10-10-10-|-10-10-10-10-10-10-|-10-10-10-10-10-10-|-10-10-10-10-10-10-|-
-|-10-10-10-10-10-10-|-10-10-10-10-10-10-|-10-10-10-10-10-10-|-10-10-10-10-10-10-|-
-|-12-12-12-12-12-12-|-10-10-10-10-10-10-|-12-12-12-12-12-12-|-10-10-10-10-10-10-|-
-|-12-12-12-12-12-12-|-10-10-10-10-10-10-|-10-10-10-10-10-10-|-10-10-10-10-10-10-|-
-|-10-10-10-10-10-10-|-10-10-10-10-10-10-|-10-10-10-10-10-10-|-10-10-10-10-10-10-|-
-|-10-10-10-10-10-10-|-10-10-10-10-10-10-|-10-10-10-10-10-10-|-10-10-10-10-10-10-|-
                                                                            
G2:                                                                              
-|-------------------|-10v---------------|-------------------|-7v----------------|-
-|-8v----------------|-------------------|-------------------|-------------------|-
-|-------------------|-------------------|-9v----------------|-------------------|-
-|-------------------|-------------------|-------------------|-------------------|-
-|-------------------|-------------------|-------------------|-------------------|-
-|-------------------|-------------------|-------------------|-------------------|-

G1 Verse: (same as before)
G2 Verse: (same as before)

G1 Outro:
       Em           C
If you look in your mind
       g                  C
Do you know what you will find?
C
Open your mind..
C
Open your mind..
C
O-pen your mind..


Comments