Las - There She Goes Chords & Tabs

 

There She Goes Chords & Tabs

Las Chords & Tabs

Version: 2 Type: Tab 0 ratings
1 star 2 stars 3 stars 4 stars 5 stars
comments

There She Goes Tab

   
Tabbed by:Arthur Richards (age10)
Email:peza9999@yahoo.com  please rate

INTRODUCTION

e|----3---5---2---3----0---0---0---0----------------------------------------
B|--3---3---3---3---3----3---3---3------------------------------------------
G|--------------------------------------------------------------------------
D|--------------------------------------------------------------------------
A|--------------------------------------------------------------------------
E|--------------------------------------------------------------------------


                                          D  D 
e|----3---5---2---3----0---0---0---0------2--2-------------------------------
B|--3---3---3---3---3----3---3---3--------3--3-------------------------------
G|----------------------------------------2--2-------------------------------
D|---------------------------------------------------------------------------
A|---------------------------------------------------------------------------
E|---------------------------------------------------------------------------


CHORUS
[ Tab from: http://www.guitartabs.cc/tabs/l/las/there_she_goes_tab_ver_2.html ]
    G*    G*    D     Dsus   C     C9    C     C9     G*
e|--3-----5-----2-----3------------------------------------------------------
B|--3-----3-----3-----3------1-----3-----1-----3------3----------------------
G|--------------2-----2-------------------------------------------X3---------
D|--5-----5------------------2-----2-----2-----2------4-X2-------------------
A|---------------------------3-----3-----3-----3------5----------------------
E|--------------------------------------------------------------------------



     Am        G         C9
e|---1---------3---------------
B|---2--X4-------X4------3-----
G|---2---------------------X8(JUST THAT CHORD)
D|-----------------------2-----
A|-------------2---------3-----
E|-------------3---------------


     Am        G         C           SLIDE UP TO    C9 

e|---1---------3-----------------------------------/--
B|---2--X4-------X4------3-------------------------/3-
G|---2-----------------------X8(JUST THAT CHORD)---/--
D|-----------------------2-------------------------/4-
A|-------------2---------3-------------------------/5-
E|-------------3-----------------------------------/--
Comments