Las - There She Goes Chords & Tabs

 

There She Goes Chords & Tabs

Las Chords & Tabs

Version: 1 Type: Bass Tab

There She Goes Bass Tab

Artist: The La's
Song: There She Goes
Tabbed by: mikethecoug

INTRO (00:15)
G|------------|------------|------------|------------|---------|
D|------------|------------|------------|------------|---------|
A|-------5-3--|-------5-3--|-------5-3--|---------3--|-5555555-|
E|-222-3------|-222-3------|-222-3------|-232-5-3----|---------|

VERSES (00:33)
G|------------|------------|------------|------------|-----------|---------|
D|------------|------------|------------|------------|-----------|---------|
A|-------5-3--|-------5-3--|-------5-3--|---------3--|---------3-|-5555555-|
E|-222-3------|-222-3------|-222-3------|-232-5-3----|-232-5-3---|---------|
[ Tab from: http://www.guitartabs.cc/tabs/l/las/there_she_goes_btab.html ]
INSTRUMENTAL (01:16)
G|------------|------------|------------|------------|-----------|---------|
D|------------|------------|------------|------------|-----------|---------|
A|-------5-3--|-------5-3--|-------5-3--|---------3--|---------3-|-5555555-|
E|-222-3------|-222-3------|-222-3------|-232-5-3----|-232-5-3---|---------|

MIDDLE 8 (01:38)
G|--------------|--------------------------|
D|--------------|--------------------------|
A|----3~-----3~-|-55----55-33-55----55-333-|
E|-0~-----0~----|----33----------33--------|

G|-----------|-----------|---------|
D|-----------|-----------|---------|
A|---------2-|---------2-|-5555555-|
E|-232-5-3---|-232-5-3---|---------|

VERSE 3 (02:01)
G|------------|------------|------------|------------|-----------|---------|
D|------------|------------|------------|------------|-----------|---------|
A|-------5-3--|-------5-3--|-------5-3--|---------3--|---------3-|-5555555-|
E|-222-3------|-222-3------|-222-3------|-232-5-3----|-232-5-3---|---------|

OUTRO (02:22)
G|------------|------------|------------|--------|
D|------------|------------|------------|--------|
A|-------5-3--|-------5-3--|-------5-3--|--------|
E|-222-3------|-222-3------|-222-3------|-222-3~-|