Lars Frederiksen & The Bastards - Skins Punx And Drunx Chords & Tabs

 

Skins Punx And Drunx Chords & Tabs

Lars Frederiksen & The Bastards Chords & Tabs

Version: 1 Type: Bass Tab 0 ratings
1 star 2 stars 3 stars 4 stars 5 stars
comments

Skins Punx And Drunx Bass Tab

Artist:   Lars Frederiksen & The Bastards
Song:     Skins Punx & Drunx
Album:    Viking (2004)
Tabbed by mauro_b (benzanotto@libero.it)

INTRO
|------------------------------------|-----------------------------------x2--|
|------------------------------------|---------------------------------------|
|---------------------3--3--6-6-6-6--|------------------3-3-3-3-6-6-6-6------|
|--5--------5----5-------------------|--5-5-5-5-5-5-5-5----------------------|
[ Tab from: http://www.guitartabs.cc/tabs/l/lars_frederiksen_the_bastards/skins_punx_and_drunx_btab.html ]
VERSE
|-----------------------------------|
|-----------------------------------|
|------------------3-3-3-3-6-6-6-6--|
|--5-5-5-5-5-5-5-5------------------|

CHORUS
|-----------------------------------x3--|-----------------------------------|
|---------------------------------------|-----------------------------------|
|------------------5-5-5-5-0-0-0-0------|------------------6-7-6-7-6-7-6-7--|
|--3-3-3-3-3-3-3-3----------------------|--3-3-3-3-3-3-3-3------------------|
Comments