Lars Frederiksen And The Bastards - Vietnam Chords & Tabs

 

Vietnam Chords & Tabs

Lars Frederiksen And The Bastards Chords & Tabs

Version: 1 Type: Tab 0 ratings
1 star 2 stars 3 stars 4 stars 5 stars
comments

Vietnam Tab

BAND : LARS FREDERIKSEN AND THE BASTARDS
SONG : VIETNAM
TABBED BY : QUINCY SLOAN

ANOTHER GREAT SONG, PROBABLY MY FAVOURITE OFF THE RECORD. THE SOLO IS MISSING AT
THE MOMENT BUT I'LL PUT UP A SEPARATE TAB IF ANYONE WANTS IT (THAT'S WHEN I GET IT THAT IS).
ENJOY

INTRO - play at beginning and after chorus
E :------------------------------------------
B :------------------------------------------
G :----------------5-5-5-5-------------------
D :-7----7----7----5-5-5-5-------------------
A :-7----7----7----3-3-3-3-------------------
E :-5----5----5------------------------------
[ Tab from: http://www.guitartabs.cc/tabs/l/lars_frederiksen_and_the_bastards/vietnam_tab.html ]
VERSE - play 4 times (x means mute previous chord with an upstroke)
E :-------------------------------------
B :-------------------------------------
G :-7-7-X---------5-5-X-----------------
D :-7-7-X--3-3-X--5-5-X--5-5-X----------
A :-5-5-X--3-3-X--3-3-X--5-5-X----------
E :--------1-1-X---------3-3-X----------

CHORUS - the ending is played in a strange timing - listen to it
E :-----------------------------------------------------------------------------
B :-----------------------------------------------------------------------------
G :-7-7-7-7-7-7-7-7-----------------5-5-5-5-5-5-5-5-7-7-7-7-7-7-7-7--10-9-------
D :-7-7-7-7-7-7-7-7-3-3-3-3-3-3-3-3-5-5-5-5-5-5-5-5-7-7-7-7-7-7-7-7--10-9--10-9-
A :-5-5-5-5-5-5-5-5-3-3-3-3-3-3-3-3-3-3-3-3-3-3-3-3-5-5-5-5-5-5-5-5--8--7--10-9-
E :-----------------1-1-1-1-1-1-1-1----------------------------------------8--7-

THE ENDING IS JUST THE CHORUS PLAYED OVER AND OVER AND THE MINI SOLO IS PLAYED OVER THE VERSE
Comments