Lars Frederiksen And The Bastards - To Have And To Have Not Chords & Tabs

 

To Have And To Have Not Chords & Tabs

Lars Frederiksen And The Bastards Chords & Tabs

Version: 3 Type: Bass Tab

To Have And To Have Not Bass Tab

This song is played in standard tuning. E A D G

Some tabs say play the D note on open on the D chord. Its the same as playing 5 on the
A chord.  Which ever is more convienent for you. 

Tabbed by: Tye


Verse

G|--------------------------------------|
D|--------------------------------------|
A|---------3333-------------5555--------|
E|-33333333----3333-00000000----3333----|

Chorus
[ Tab from: http://www.guitartabs.cc/tabs/l/lars_frederiksen_and_the_bastards/to_have_and_to_have_not_btab_ver_3.html ]
G|---------5-5-------------7-7--------|
D|-5-55-55-----5-5-------------5-5----|
A|-----------------7-77-77------------|
E|------------------------------------|

Bridge......"...Well at 21 you're atop of the scrap heap..."

G|---------------------|
D|---------------------|
A|-----------5555------|
E|-3----0000------3333-|



order

verse(x4)
chorus(x2)
verse(x4)
chorus(x2)
verse(x4)
chorus(x2)
verse(x2)
bridge(x2)
verse(x4)

I hope you enjoy this tab as much as I do.