Lars Frederiksen And The Bastards - Six Foot Five Chords & Tabs

 

Six Foot Five Chords & Tabs

Lars Frederiksen And The Bastards Chords & Tabs

Version: 1 Type: Tab 0 ratings
1 star 2 stars 3 stars 4 stars 5 stars
comments

Six Foot Five Tab

BAND : LARS AND THE BASTARDS
SONG : SIX FOOT FIVE
TABBED BY : QUINCY SLOAN

GREAT SONG FROM LARS' SOLO ALBUM WITH A REAL BLUES/ROCK'N'ROLL FEEL TO IT. I
CAN'T FIGURE OUT THE SOLO DURING THE CHORUS AND ENDING, SO IMPROVISE A LITTLE. IF
I DO FIGURE IT OUT I'LL PUT IT ON. ANYWAY, HERE IT IS. ENJOY

INTRO - this chord but for longer
E :-------------------
B :-------------------       
G :-5-5-5-5-5-5-5-5---
D :-5-5-5-5-5-5-5-5---
A :-3-3-3-3-3-3-3-3---
E :-------------------

VERSE - a basic blues riff, use up and down picking for a more flowing sound
E :-------------------------------------------------------------------------
B :-------------------------------------------------------------------------
G :-------------------------------------------------------------------------
D :-5-5-7-7-5-5-7-7-5-5-7-7-5-5-7-7-----------------------------------------
A :-3-3-3-3-3-3-3-3-3-3-3-3-3-3-3-3-3-3-5-5-3-3-5-5-3-3-5-5-3-3-3-5-5-------
E :---------------------------------1-1-1-1-1-1-1-1-1-1-1-1-1-1-1-1-1-------
[ Tab from: http://www.guitartabs.cc/tabs/l/lars_frederiksen_and_the_bastards/six_foot_five_tab.html ]
E :---------------------------------------------------------------------
B :---------------------------------------------------------------------
G :---------------------------------------------------------------------
D :-5-5-7-7-5-5-7-7-5-5-7-7-5-5-7-7-------------------------------------
A :-3-3-3-3-3-3-3-3-3-3-3-3-3-3-3-3-5-5-7-7-5-5-7-7-5-5-7-7-5-5-7-7-----
E :---------------------------------3-3-3-3-3-3-3-3-3-3-3-3-3-3-3-3-----

FILL - do this in the middle and at the end of the verse
E :-3-3-3-3-----------0-0-0-0-0-0-0-0---------
B :-3-3-3-3-----------1-1-1-1-1-1-1-1---------
G :-0-0-0-0-----------0-0-0-0-0-0-0-0---------
D :-0-0-0-0--3-3-3-3--2-2-2-2-2-2-2-2---------
A :-2-2-2-2--3-3-3-3--3-3-3-3-3-3-3-3---------
E :-3-3-3-3--1-1-1-1--------------------------

CHORUS - can be played in chords
E :----------------------------------------
B :----------------------------------------
G :------------------5-5-5-5-5-5-5-5-------
D :-3-3-3-3-3-3-3-5--5-5-5-5-5-5-5-5-------
A :-3-3-3-3-3-3-3-5--3-3-3-3-3-3-3-3-------
E :-1-1-1-1-1-1-1-3------------------------

I DON'T WANNA BE POOR NO MORE BIT - play at the end of chorus
E :------------------------------------------------------------------------
B :------------------------------------------------------------------------
G :------------------------------------------------------------------------
D :-3-3-3-3-3-3-3-3--5-5-5-5-5-5-5-5--3-3-3-3-3-3-3-3--5-5-5-5-5-5-5-5-----
A :-3-3-3-3-3-3-3-3--5-5-5-5-5-5-5-5--3-3-3-3-3-3-3-3--5-5-5-5-5-5-5-5-----
E :-1-1-1-1-1-1-1-1--3-3-3-3-3-3-3-3--1-1-1-1-1-1-1-1--3-3-3-3-3-3-3-3-----
Comments