Lars Frederiksen And The Bastards - Scunx Chords & Tabs

 

Scunx Chords & Tabs

Lars Frederiksen And The Bastards Chords & Tabs

Version: 1 Type: Bass Tab 1 rating
1 star 2 stars 3 stars 4 stars 5 stars
comments

Scunx Bass Tab

#----------------------------------PLEASE NOTE---------------------------------#
#This file is the author's own work and represents their interpretation of the #
#song. You may only use this file for private study, scholarship, or research. #
#------------------------------------------------------------------------------#

Song: Skunx
Artists: Lars Frederiksen and the Bastards


After guitar intro (verse + chorus)


Intro

G--------------------------------9--9--9-9-9-9--
D-----------------2--2--2-2-2-2-----------------
A-----------------------------------------------
E--0--0--0-0-0-0--------------------------------


Verse

G--------------------------------------------------------------------
D--------------------------------------------------------------------
A--------------------------------------------------------------------
E--5-5-5-5-5-5-5-5-5-5-5-5-5-5-5-5--0-0-0-0-0-0-0-0-0-0-0-0-0-0-0-0--

G--------------------------------------------------------------------
D--------------------------------------------------------------------
A--------------------------------------------------------------------
E--0-0-0-0-0-0-0-0-0-0-0-0-0-0-0-0--5-5-5-5-5-5-5-5-5-5-5-5-5-5-5-5--


Chorus

G-------------------------------------------------------------------
D-------------------------------------------------------------------
A--5-5-5-5-5-5-5-5--------------------------------------------------
E-------------------5-5-5-5-5-5-5-5--0-0-0-0-0-0-0-0-0-0-0-0-0-0-0--


Bridge Part1

G--------------------------------------------------------------------
D--------------------------------------------------------------------
A--------------------------------------------------------------------
E--5-5-5-5-5-5-5-5-5-5-5-5-5-5-5-5--0-0-0-0-0-0-0-0-0-0-0-0-0-0-0-0--
[ Tab from: http://www.guitartabs.cc/tabs/l/lars_frederiksen_and_the_bastards/scunx_btab.html ]
G---------------------------------------------------------------------
D---------------------------------------------------------------------
A--5-5-5-5-5-5-5-5----------------------------------------------------
E-------------------5-5-5-5-5-5-5-5--0-0-0-0-0-0-0-0-0-0-0-0-0-0-0-0--


Bridge Part2

G----------------------------------------------------------------------
D----------------------------------------------------------------------
A----------------------------------------------------------------------
E--5--------------0--------------0--------------5--------------5-------

G-------------------------------------------------------9--7--6----
D--------------------------------------------------7---------------
A------------------------------------------------------------------
E------0--------------0--------------5-----------------------------

G-----------------------------------9--7--6-------9--7--6----------------
D-------6--7--6-------6--7--6--7-------------7------------------6--7--6--
A--7-------------7-----------------------------------------7-------------
E------------------------------------------------------------------------

G---------------------------------
D-------6--7--6-------------------
A--7------------------------------
E----------------5-5-5-5-5-5-5-5--


Final Chorus

G-----------------------------------------------------------------------(x3)----*
D-------------------------------------------------------------------------------*
A--5-5-5-5-5-5-5-5--------------------------------------------------------------*
E-------------------5-5-5-5-5-5-5-5--0-0-0-0-0-0-0-0-0-0-0-0-0-0-0-0------------*

G--*------------------------------------------------------------------9--9--9-9-9-9--
D--*---------------------------------------------------2--2--2-2-2-2-----------------
A--*--5-5-5-5-5-5-5-5----------------------------------------------------------------
E--*-------------------5-5-5-5-5-5-5-5--0--0--0-0-0-0--------------------------------

End with G-----
         D-----
   	 A-----
	 E--5--


Intro
Verse x2
Chorus x4
Bridge Part1 x2
Bridge Part2
Final Chorus 


mc_call@email.it for questions




Comments