Lars Frederiksen And The Bastards - Maggots Chords & Tabs

 

Maggots Chords & Tabs

Lars Frederiksen And The Bastards Chords & Tabs

Version: 2 Type: Tab 0 ratings
1 star 2 stars 3 stars 4 stars 5 stars
comments

Maggots Tab

   
Tabbed By: CorporalHicks

SONG: MAGGOTS
ALBUM: VIKING
BAND: LARS FREDERIKSEN AND THE BASTARDS 

RIFF 
e|--------------------------------------|
B|------6-5--6-5---------6-5--6-5-------|
G|---------------7----------------7-5-4-|
D|-7--7-------------7--7----------------|
A|--------------------------------------|
E|--------------------------------------|

VERSE
e|---------------------------------------------------------|
B|---------------------------------------------------------|
G|-10-10-10-10-10-10-10-10-----------------7-7-7-7-7-7-7-7-|
D|-10-10-10-10-10-10-10-10-7-7-7-7-7-7-7-7-7-7-7-7-7-7-7-7-|
A|--8--8--8--8--8--8--8--8-7-7-7-7-7-7-7-7-5-5-5-5-5-5-5-5-|
E|-------------------------5-5-5-5-5-5-5-5-----------------|

e|-------------------------------------------------|
B|-------------------------------------------------|
G|-5-5-5-5-5-5-5-5-----------------7-7-7-7-7-7-7-7-|
D|-5-5-5-5-5-5-5-5-7-7-7-7-7-7-7-7-7-7-7-7-7-7-7-7-|
A|-3-3-3-3-3-3-3-3-7-7-7-7-7-7-7-7-5-5-5-5-5-5-5-5-|
E|-----------------5-5-5-5-5-5-5-5-----------------|

CHORUS
e|---------------------------------------------------------|
B|---------------------------------------------------------|
G|-10-10-10-10-10-10-10-10-----------------7-7-7-7-7-7-7-7-|
D|-10-10-10-10-10-10-10-10-7-7-7-7-7-7-7-7-7-7-7-7-7-7-7-7-|
A|--8--8--8--8--8--8--8--8-7-7-7-7-7-7-7-7-5-5-5-5-5-5-5-5-|
E|-------------------------5-5-5-5-5-5-5-5-----------------|

RIFF 
e|--------------------------------------|
B|------6-5--6-5---------6-5--6-5-------|
G|---------------7----------------7-5-4-|
D|-7--7-------------7--7----------------|
A|--------------------------------------|
E|--------------------------------------|
[ Tab from: http://www.guitartabs.cc/tabs/l/lars_frederiksen_and_the_bastards/maggots_tab_ver_2.html ]
VERSE
e|---------------------------------------------------------|
B|---------------------------------------------------------|
G|-10-10-10-10-10-10-10-10-----------------7-7-7-7-7-7-7-7-|
D|-10-10-10-10-10-10-10-10-7-7-7-7-7-7-7-7-7-7-7-7-7-7-7-7-|
A|--8--8--8--8--8--8--8--8-7-7-7-7-7-7-7-7-5-5-5-5-5-5-5-5-|
E|-------------------------5-5-5-5-5-5-5-5-----------------|

e|-------------------------------------------------|
B|-------------------------------------------------|
G|-5-5-5-5-5-5-5-5-----------------7-7-7-7-7-7-7-7-|
D|-5-5-5-5-5-5-5-5-7-7-7-7-7-7-7-7-7-7-7-7-7-7-7-7-|
A|-3-3-3-3-3-3-3-3-7-7-7-7-7-7-7-7-5-5-5-5-5-5-5-5-|
E|-----------------5-5-5-5-5-5-5-5-----------------|

CHORUS
e|---------------------------------------------------------|
B|---------------------------------------------------------|
G|-10-10-10-10-10-10-10-10-----------------7-7-7-7-7-7-7-7-|
D|-10-10-10-10-10-10-10-10-7-7-7-7-7-7-7-7-7-7-7-7-7-7-7-7-|
A|--8--8--8--8--8--8--8--8-7-7-7-7-7-7-7-7-5-5-5-5-5-5-5-5-|
E|-------------------------5-5-5-5-5-5-5-5-----------------|

RIFF 
e|--------------------------------------|
B|------6-5--6-5---------6-5--6-5-------|
G|---------------7----------------7-5-4-|
D|-7--7-------------7--7----------------|
A|--------------------------------------|
E|--------------------------------------|

CHORUS
e|---------------------------------------------------------|
B|---------------------------------------------------------|
G|-10-10-10-10-10-10-10-10-----------------7-7-7-7-7-7-7-7-|
D|-10-10-10-10-10-10-10-10-7-7-7-7-7-7-7-7-7-7-7-7-7-7-7-7-|
A|--8--8--8--8--8--8--8--8-7-7-7-7-7-7-7-7-5-5-5-5-5-5-5-5-|
E|-------------------------5-5-5-5-5-5-5-5-----------------|

--------------------------------

RIFF 				X1
VERSE 1			        X1
CHORUS			        X4
RIFF				X1
VERSE 2			        X1
CHORUS			        X4
RIFF				X1
CHORUS			        X4

GUITAR 2 to come.
Comments