Lars Frederiksen And The Bastards - Maggots Chords & Tabs

 

Maggots Chords & Tabs

Lars Frederiksen And The Bastards Chords & Tabs

Version: 1 Type: Tab 0 ratings
1 star 2 stars 3 stars 4 stars 5 stars
comments

Maggots Tab

this may not be right but it sounds good to me!

  1st guitar intro / interlude
e----------------------------------------------------------------------------|
B----------------------------------------------------------------------------|
G--------9--8-------9--8--6--------------------------------------------------|
D---6------------------------------------------------------------------------|
A----------------------------------------------------------------------------|
E----------------------------------------------------------------------------|

e---------------------------------------------------------------------------|
B---------------------------------------------------------------------------|
G--------9--8------9--8--6--4--3--------------------------------------------|
D--6------------------------------------------------------------------------|
A---------------------------------------------------------------------------|
E---------------------------------------------------------------------------|
[ Tab from: http://www.guitartabs.cc/tabs/l/lars_frederiksen_and_the_bastards/maggots_tab.html ]
   2nd guitar intro                play this behind 1st guitar
e---------------------------------------------------------------------------|
B---------------------------------------------------------------------------|
G---------------------------------------------------------------------------|
D---------------------------------------------------------------------------|
A----------5--6---------------5--6-------------5--6--------------4--2-------|
E--4--4--------------4--4---------------4--4--------------4--4--------------|


  Verse
e---------------------------------------------------------------------------|
B---------------------------------------------------------------------------|
G---------------------------------------------------------------------------|
D-------------------99999999-------4444444444444444-------------------------|
A----66666666-------77777777-------6666666666666666-------------------------|
E----44444444---------------------------------------------------------------|

chorus
e---------------------------------------------------------------------------|
B---------------------------------------------------------------------------|
G---------------------------------------------------------------------------|
D----7777----------------66666666-------------------------------------------|
A----9999------6666------44444444-------------------------------------------|
E--------------4444---------------------------------------------------------|


listen to the song and figure out the order
Comments