Lars Frederiksen And The Bastards - Dead American Chords & Tabs

 

Dead American Chords & Tabs

Lars Frederiksen And The Bastards Chords & Tabs

Version: 4 Type: Tab 0 ratings
1 star 2 stars 3 stars 4 stars 5 stars
comments

Dead American Tab

   
Tabbed By CorporalHicks

SONG:  DEAD AMERICAN
ALBUM: LARS FREDERIKSEN AND THE BASTARDS
BAND:  LARS FREDERIKSEN AND THE BASTARDS

LEGEND

D - Down Pick
U - Up Pick
X - Not Played

NOTE: Everything's played down, unless stated.

----------------------------------------------------------------------------

INTRO
e|------------------------------------------------------------------------|X
B|------------------------------------------------------------------------|X
G|---------8-8-5-5-7-7---------8-8-5-5-7-7--------------------------------|
D|-5-5-8-8-8-8-5-5-7-7-5-5-8-8-8-8-5-5-7-7--------------------------------|
A|-5-5-8-8-6-6-3-3-5-5-5-5-8-8-6-6-3-3-5-5--------------------------------|
E|-3-3-6-6-------------3-3-6-6--------------------------------------------|
[ Tab from: http://www.guitartabs.cc/tabs/l/lars_frederiksen_and_the_bastards/dead_american_tab_ver_4.html ]
VERSE
e|------------------------------------------------------------------------|X
B|------------------------------------------------------------------------|X
G|-----------------8-8-8-8-5-5-7-7----------------------------------------|
D|-5-5-5-5-8-8-8-8-8-8-8-8-5-5-7-7----------------------------------------|
A|-5-5-5-5-8-8-8-8-6-6-6-6-3-3-5-5----------------------------------------|
E|-3-3-3-3-6-6-6-6--------------------------------------------------------|

CHORUS
e|------------------------------------------------------------------------|X
B|------------------------------------------------------------------------|X
G|-5-5-5-5-12-12-12-12-10-10-10-10-10-10-10-10----------------------------|
D|-5-5-5-5-12-12-12-12-10-10-10-10-10-10-10-10----------------------------|
A|-3-3-3-3-10-10-10-10-8--8--8--8--8--8--8--8-----------------------------|
E|------------------------------------------------------------------------|X
	
SOLO
e|------------------------------------------------------------------------|X
B|------------11--11-11-11-11------------11--11-11-11-11------------------|
G|----------------------------9--9-9-9-9----------------------------------|
D|-8--8-8-8-8-------------------------------------------------------------|
A|------------------------------------------------------------------------|X
E|------------------------------------------------------------------------|X
   D  D U D U D    D  U  D U  D  D U D U D   D  U  D  U	


INTRO
VERSE  - X4
CHORUS - X4
INTRO
VERSE  - X4
CHORUS - X4
SOLO   - X4
CHORUS - X4
Comments