Lars Frederiksen And The Bastards - Dead American Chords & Tabs

 

Dead American Chords & Tabs

Lars Frederiksen And The Bastards Chords & Tabs

Version: 3 Type: Tab 0 ratings
1 star 2 stars 3 stars 4 stars 5 stars
comments

Dead American Tab

Lars Frederiksen & The Bastards
Dead American
Tabbed by:Rancid Junkie
Intro
E------------------------------------------------------------
B------------------------------------------------------------
G------------------------------------------------------------
D-------88-55-77-------88--pickslide-------------------------
A-55-88-66-33-55-55-88-66------------------------------------
E-33-66----------33-66---------------------------------------
[ Tab from: http://www.guitartabs.cc/tabs/l/lars_frederiksen_and_the_bastards/dead_american_tab_ver_3.html ]
verse
E------------------------------------------------------------
B------------------------------------------------------------
G------------------------------------------------------------
D------------8888-5-7----------------------------------------
A-5555--8888-6666-3-5----------------------------------------
E-3333--6666-------------------------------------------------
 
Chorus
Guitar 1:                             Guitar 2:
E-------------------------------      E---------------------------
B---------------------7777-5555-      B---------------------------
G---------------------5555-3333-      G-3/5-3/5-3/5---------------
D-5555-----------5555-----------      D-------------3/5-----------
A-3333-5555-3333-3333-----------      A---------------------------
E------3333-1111----------------      E---------------------------

Solo: Play with Tons of Flagning.
E------------------------------------------------------------
B------------------------------------------------------------
G-3/15/9/15-3/15/9/15-3/15/7/15------------------------------
D-3/15/9/15-3/15/9/15-3/15/7/15------------------------------
A-1/13/7/13-1/13/7/13-1/13/5/13------------------------------
E------------------------------------------------------------


Lyrics:
Trench warfare dug in deep brutal bloody No retreat
American dead better than red another politician with a debt on his head
Bodies ripped covered in shit Napalm blitz the City is lit
Bombs blast mustard gas throat slash truncheon smash
Another story about another dead American... One more story about a dead American.
Blitzkrieg flames buildings ablaze killings fields where the bodies decay
Torture racks machine gun racks never surrender it's an all - out attack
Money whores open soars plan quiet wars behind closed doors
Clandestine games human remains cyanide genocide
One more story about a dead American

Thanks. Please rate!
Comments