Larlee Reuben - Just The Same Chords & Tabs

 

Just The Same Chords & Tabs

Larlee Reuben Chords & Tabs

Version: 1 Type: Tab 1 rating
1 star 2 stars 3 stars 4 stars 5 stars
comments

Just The Same Tab

   
h-hammer
p-pull
^-bend
/-slide

Intro (is in 3/4 time)
e-------------9-10---------------------------------------------
B-----------7------------------------------5-------------------
G---------7------------------7-----------7---7-6---------------
D-------7----------------7-8---8-7-----4-----------------------
A---7/9----------------9-------------7-------------5-7-8-7-----
E-7-----------------10-------------5-------------7---------6-7-

e-------------9-10-----------------------------------------------9-7-
B-----------7------------------------------5-------------------7-----
G---------7-----------------7------------7---7-6--3----------7-------
D-------7---------------7-8---8-7------4-------------------7---------
A---7/9---------------9--------------7-----------------7/9-----------
E-7----------------10--------------5-----------------7---------------
(back to 4/4)

GUITAR 1
Verse(straight eighths)
e--------------------------------------------------------------------
B--------------------------------------------------------------------
G--------------------------------------------------------------------
D-9-9-9-9-9-9-9-9--7-7-7-7-7-7-7-7--7-7-7-7-7-7-7-7--2-2-2-2-5-5-5-5-
A-9-9-9-9-9-9-9-9--5-5-5-5-5-5-5-5--7-7-7-7-7-7-7-7--2-2-2-2-5-5-5-5-
E-7-7-7-7-7-7-7-7--5-5-5-5-5-5-5-5--5-5-5-5-5-5-5-5--0-0-0-0-3-3-3-3-

Chorus(straight eighths)
e-------------------------------------------------
B-------------------------------------------------
G-------------------------------------------------
D-----------9-9-11-11-----------------------------
A--9-9-9-9--7-7-9--9------------------------------
E--7-7-7-7------------3335-5555-------------------

GUITAR 2
Verse
e---------------------------------------
B---------------------------------------
G---------------------------------------
D----------------------------9-7--------
A------7-10-9-7---------9-10-----10-9-7-
E-7-10----------10-9-10-----------------

e---------------------------------
B---------------------------------
G---------------------------------
D---------------------------------
A---7-5-4-2-0-------0-2-4-5-4-2-0-
E-5-----------3-2-3---------------

Solo
e--------------------------------------------------------
B--------------------------------------------------------
G--------------------------------------------------------
D----------------------7----9-7---------------^----------
A-------5-7-5--7-5-7-9---9------9-7-5-------5-7-5--------
E-7-5-7-------------------------------7-5-7--------------

                                                ^
e----------------------------------------10-12-12-10----
B----------------------------------10-12-------------12-
G---------------------------7-9-11----------------------
D----------------------7-9------------------------------
A-------5-7-5--7-5-7-9----------------------------------
E-7-5-7-------------------------------------------------

[ Tab from: http://www.guitartabs.cc/tabs/l/larlee_reuben/just_the_same_tab.html ]
e-2-/7-7h10p7---------------------------
B-------------10-9-7--------------------
G--------------------10-9-7-4-4/7-4-4/6-
D---------------------------------------
A---------------------------------------
E---------------------------------------


e-------------------------------------------------10-
B-----------5------------------^------------10-12----
G---------4---4---------------{8-----7-9-11----------
D-------7--------7-4----------{9-7-9-----------------
A-----5------------------5-7-------------------------
E-5/7----------------5-7-----------------------------


e-14p12p10-12-14-17-14-17-19-22-19-17-19-
B----------------------------------------
G----------------------------------------
D----------------------------------------
A----------------------------------------
E----------------------------------------


e-14-19p17p14-19p17p14-19p17p14-19p17p14-------
B----------------------------------------------
G----------------------------------------------
D----------------------------------------------
A----------------------------------------------
E----------------------------------------------

e-17p15p14-17p15p14-17p15p14-17p15p14----------
B----------------------------------------------
G----------------------------------------------
D----------------------------------------------
A----------------------------------------------
E----------------------------------------------

e-15p14p12-15p14p12-15p14p12-15p14p12----------
B----------------------------------------------
G----------------------------------------------
D----------------------------------------------
A----------------------------------------------
E----------------------------------------------


e-14p12p10-14p12p10-14p12p10-14p12p10----------
B----------------------------------------------
G----------------------------------------------
D----------------------------------------------
A----------------------------------------------
E----------------------------------------------


e-9p7p5-9p7p5-9p7p5-9p7p5-10p7p5-10p7p5-10p7p5-10p7p5-
B-----------------------------------------------------
G-----------------------------------------------------
D-----------------------------------------------------
A-----------------------------------------------------
E-----------------------------------------------------


e-12p10p7-12p10p7-12p10p7-12p10p7-------10--------------------
B---------------------------------10-12----12-10--------^-----
G------------------------------------------------11-9-7-9-7-9-
D-------------------------------------------------------------
A-------------------------------------------------------------
E-------------------------------------------------------------

e----------------------------------------------------
B----------------------------------------------------
G----------------------------------------------------
D-7p4p0-4-4h7p4--------------------------------------
A---------------7-7p5p0-2-2h5p2-----------5-7-7-5----
E-------------------------------5-0-2/5-7---------7--

This is how it's all played out... minus the bass, drums, and vocals...

G1 (intro)-(verse x8)-(chorus x4)-(verse x2)-(verse x4)-(chorus x7)- 
G2 (pause)-(pause   )-(pause    )-(verse x2)-(pause   )-(pause    )-

G1 (chorus x5)-(verse x4)-(chorus x2)-(end)  
G2 (solo     )-(pause   )-(verse x2)-(verse diminuendo)-(end)
Comments