Larger Than Life - Last Summer Chords & Tabs

 

Last Summer Chords & Tabs

Larger Than Life Chords & Tabs

Version: 1 Type: Bass Tab 0 ratings
1 star 2 stars 3 stars 4 stars 5 stars
comments

Last Summer Bass Tab

Band - Larger Than Life
Song - Last Summer
Tabbed by - Jon Dadley (Jondadley@hotmail.com)
[ Tab from: http://www.guitartabs.cc/tabs/l/larger_than_life/last_summer_btab.html ]
Intro/Riff 1
G|---------------------------------------------------------------------------------- 
D|---------------------------------------------------------------------------------- 
A|-10\-555555----------------------------------------------------------------------- 
E|-----------3333335555557777777755555555------------------------------------------- 
Riff 2
G|---------------------------------------------------------------------------------- 
D|------4h5p4------5p4-------------------------------------------------------------- 
A|--5-5----------------------------------------------------------------------------- 
E|-------------3-3-------5-5--777555------------------------------------------------ 
Riff 3
G|---------------------------------------------------------------------------------- 
D|---------------------------------------------------------------------------------- 
A|---------------------555555-------------------------------------------------------
E|-333333/5555557777777------------------------------------------------------------- 
Riff 4
G|-14-12-11-9--14-12-11----11-----14-12-11------------------------------------------ 
D|----------------------12----12-------------11h12---------------------------------- 
A|---------------------------------------------------------------------------------- 
E|---------------------------------------------------------------------------------- 

G|---------14------14------14------14-----9----9----9----9-------------------------- 
D|-11--1212---1212----1212----1212-----77---77---77---77---999999994444444455555555- 
A|----------------------------------------------------------------------------------
E|---------------------------------------------------------------------------------- 

G|--------------------------------------------------------------------- 
D|--------------------------------------------------------------------- 
A|-22----55------------------------------------------------------------ 
E|----44----55---------------------------------------------------------
Comments