Lard - Fork Boy Chords & Tabs

 

Fork Boy Chords & Tabs

Lard Chords & Tabs

Version: 1 Type: Bass Tab 0 ratings
1 star 2 stars 3 stars 4 stars 5 stars
comments

Fork Boy Bass Tab

Forkboy by Lard off the Natural Born Killers Soundtrack

intro
Repeated Many Times and played EXTREMELY fast
g------------------------------------
d-----------------------------------
a-------5--7-------5--7----------
e---0----------0-------------------
[ Tab from: http://www.guitartabs.cc/tabs/l/lard/fork_boy_btab.html ]
chorus??
g-----------------------------------------------------------------
d-----------------------------------------------------------------
a------5--7-----5--7------8--7------5--7-----5--7----------
e---0--------0----------0----------0--------0--------5--3----

ending
g--------------------------------
d---------------------------------
a---------------------------------
e--0-0--1-1--2-2--3-2-1----
i havent played this in a while so i dont know which parts are which
but enjoy
Any questions or comments write me
PePPeRs 01@aol.com




Comments