Larc En Ciel - Stay Away Chords & Tabs

 

Stay Away Chords & Tabs

Larc En Ciel Chords & Tabs

Version: 1 Type: Tab 0 ratings
1 star 2 stars 3 stars 4 stars 5 stars
comments

Stay Away Tab

GUITAR TAB

Artist: L'Arc-en-Ciel
Song: Stay Away
Album: Real
Time: 4/4
Tabbed by: Adityo haryudo [scenery_adit@yahoo.com]

  
  GUITARA 1

 /---Play4x---\
e|-------------|-------------------------------12h---p10p9p7----------------------------------G
B|--p12p10h14--|--p10h12-p9h10h9-p7-p5-7--/12--12-------------p9--h12p10h7--p10p9h7-p10p9-----U
G|-------------|------------------------------------------------------------------------------I
D|-------------|------------------------------------------------------------------------------T
A|-------------|------------------------------------------------------------------------------A
E|-------------|------------------------------------------------------------------------------R
[ Tab from: http://www.guitartabs.cc/tabs/l/larc_en_ciel/stay_away_tab.html ]
e|------------------------------------p15p15p15--p14p14p14--------------h19--p14p14p14--------G
B|-----------------13----13----15~15~-p15p15p15--p14p14p14----p17p17p17------p14p14p14--------U
G|--9-9~~--/14--14----14----14-----------------------------14--------------------------p14h13-I
D|--------------------------------------------------------------------------------------------T
A|--------------------------------------------------------------------------------------------A
E|--------------------------------------------------------------------------------------------R

e|------------h19-----h17-----h16-p14--h12p14p14h12h13h14--/16-16~----------------------------G
B|--p17p17p17-----p17-----p17--------------------------------------p12p14h14h12--------p12h14-U
G|------------------------------------------------------------------------------p14p12--------I
D|--------------------------------------------------------------------------------------------T
A|--------------------------------------------------------------------------------------------A
E|--------------------------------------------------------------------------------------------R

e|----------ph16~~~~~~~-----------------------------------------------------------------------G
B|--p12p12------------------------------------------------------------------------------------U
G|--------------------------------------------------------------------------------------------I
D|--------------------------------------------------------------------------------------------T
A|--------------------------------------------------------------------------------------------A
E|--------------------------------------------------------------------------------------------R
Comments