Larc En Ciel - Jiyuu E No Shoutai Chords & Tabs

 

Jiyuu E No Shoutai Chords & Tabs

Larc En Ciel Chords & Tabs

Version: 1 Type: Bass Tab 0 ratings
1 star 2 stars 3 stars 4 stars 5 stars
comments

Jiyuu E No Shoutai Bass Tab

Bass

email: atomicjp@yahoo.com
bass tab of jiyuu e no shoutai, enjoy!


                                                                   
G||------------------|---------------------|----------------------|
D||------------------|---------------------|----------------------|
A||------------------|--3------------2--3--|--5----5--3------2/---|
E||------------------|---------------------|----------------------|


                                                                        
------------------------|------------------------|---------------------|
--------------5--3/-----|-----5----3----2--------|---------------------|
-----2--5--3------------|------------------5--2--|--3------------2--3--|
--3---------------------|--3---------------------|---------------------|


                                                                         
----------------------|------------------------|------------------------|
----------------------|--------------5--3/-----|-----5----3----2--------|
--5----5--3------2/---|-----2--5--3------------|------------------5--2--|
----------------------|--3---------------------|--3---------------------|


                                                     
-------------------------|--------------------------|
-------------------------|--------------------------|
-------------------------|--------------------------|
--3----3--3--3--3--3--3--|--3--3--3--3--3--3--3--3--|


                                                           
-----------------------------|----------------------------|
--3/-10--9------10--9--------|----10--9------10--9--------|
------------10---------10----|-----------10---------10/---|
-----------------------------|----------------------------|


                                                      
--------------------------|--------------------------|
--------------------------|--------------------------|
--3--3--3--3--3--3--3--3--|--3--3--3--3--3--3--3--3--|
--------------------------|--------------------------|


                                                      
--------------------------|--------------------------|
--------------------------|--------------------------|
--------------------------|--------------------------|
--5--5--5--5--5--5--5--5--|--1--1--1--1--3--3--3--3--|


                                                      
--------------------------|--------------------------|
--------------------------|--------------------------|
--3--3--3--3--3--3--3--3--|--3--3--3--3--3--3--3--3--|
--------------------------|--------------------------|


                                                                            
--------------------------|--------------------------|---------------------|
--------------------------|--------------------------|---------------------|
--------------------------|--------------------------|--3------------2--3--|
--5--5--5--5--5--5--5--5--|--1--1--1--1--3--3--3--3--|---------------------|


                                                                         
----------------------|------------------------|------------------------|
----------------------|--------------5--3/-----|-----5----3----2--------|
--5----5--3------2/---|-----2--5--3------------|------------------5--2--|
----------------------|--3---------------------|--3---------------------|


                                                                      
---------------------|----------------------|------------------------|
---------------------|----------------------|--------------5--3/-----|
--3------------2--3--|--5----5--3------2/---|-----2--5--3------------|
---------------------|----------------------|--3---------------------|


                                                                               
------------------------|--------------------------|--------------------------|
-----5----3----2--------|--------------------------|--------------------------|
------------------5--2--|--3--3--3--3--3--3--3--3--|--3--3--3--3--3--3--3--3--|
--3---------------------|--------------------------|--------------------------|


                                                      
--------------------------|--------------------------|
--------------------------|--------------------------|
--------------------------|--------------------------|
--5--5--5--5--5--5--5--5--|--1--1--1--1--3--3--3--3--|


                                                      
--------------------------|--------------------------|
--------------------------|--------------------------|
--3--3--3--3--3--3--3--3--|--3--3--3--3--3--3--3--3--|
--------------------------|--------------------------|


                                                                                
--------------------------|--------------------------|-------------------------|
--------------------------|--------------------------|--------2----2-----------|
--------------------------|--------------------------|--3/-7----------5--3-----|
--5--5--5--5--5--5--5--5--|--1--1--1--1--3--3--3--3--|----------------------3--|


                                                                            
-----------------------|-----------------------|---------------------------|
-------5--3----2-------|-----------------------|-----------------2--2/-14--|
----3-------------3----|-----------------------|--------3-----3------------|
-----------------------|--3----3--3----0--3----|--5--5-----5---------------|


                                                                            
------------------------|------------------------|-------------------------|
-------2----2-----------|-------5--3----2--------|-------------------------|
---------------5--3-----|----3-------------3--4--|--5----5--5--5--5--5--5--|
--3------------------3--|------------------------|-------------------------|


                                                      
--------------------------|--------------------------|
--------------------------|--------------------------|
--5--5--5--5--5--5--5--3--|--------------------------|
--------------------------|--1--1--1--1--1--1--1--1--|


                                                      
--------------------------|--------------------------|
--------------------------|--------------------------|
--------------------------|--3--3--2--2--------------|
--3--3--3--3--3--3--3--3--|--------------5--5--3--3--|


                                                      
--------------------------|--------------------------|
--------------------------|--------------------------|
--3--3--3--3--3--3--3--3--|--2--2--2--2--2--2--2--2--|
--------------------------|--------------------------|


                                                      
--------------------------|--------------------------|
--------------------------|--------------------------|
--------------------------|--------------------2--4--|
--5--5--5--5--5--5--5--5--|--3--3--3--3--3--5--------|


                                                      
--------------------------|--------------------------|
--------------------------|--------------------------|
--5--5--5--5--5--5--5--5--|--4--4--4--4--4--4--4--4--|
--------------------------|--------------------------|


                                                                                
--------------------------|-------------------------|--------------------------|
--------------------------|-------------------------|--------------------------|
--3--3--3--3--3--3--3--3--|--------------------2----|--3--3--3--3--3--3--3--3--|
--------------------------|--3--3--3--3--3--5-------|--------------------------|


                                                      
--------------------------|--------------------------|
--------------------------|--------------------------|
--2--2--2--2--2--2--2--2--|--------------------------|
--------------------------|--5--5--5--5--5--5--5--5--|


                                                                            
--------------------------|--------------------------|---------------------|
--------------------------|--------------------------|---------------------|
--------------------------|--------------------------|---------------------|
--3--3--3--3--3--3--3--3--|--1--1--1--1--1--1--1--1--|--3--3--3------------|


                                                                          
---------------------|------------------------|--------------------------|
---------------------|------------------------|--------------------------|
--3------------2--3--|--5----5--3/---10/---3--|--3--3--3--3--3--3--3--3--|
---------------------|------------------------|--------------------------|


                                                      
--------------------------|--------------------------|
--------------------------|--------------------------|
--3--3--3--3--3--3--3--3--|--------------------------|
--------------------------|--5--5--5--5--5--5--5--5--|


                                                      
--------------------------|--------------------------|
--------------------------|--------------------------|
--------------------------|--3--3--3--3--3--3--3--3--|
--1--1--1--1--3--3--3--3--|--------------------------|


                                                      
--------------------------|--------------------------|
--------------------------|--------------------------|
--3--3--3--3--3--3--3--3--|--------------------------|
--------------------------|--5--5--5--5--5--5--5--5--|


                                                                             
--------------------------|-------------------------|-----------------------|
--------------------------|-------------------------|-------5--3----2-------|
--------------------------|--3/-7--7----7--5--3-----|----3-------------3----|
--1--1--1--1--3--3--3--3--|----------------------3--|-----------------------|


                                                                             
-----------------------|---------------------------|------------------------|
-----------------------|-----------------2--2/-14--|------------------------|
-----------------------|--------3-----3------------|-------7----7--5--3-----|
--3----3--3----0--3----|--5--5-----5---------------|--3------------------3--|


                                                                              
------------------------|-------------------------|--------------------------|
-------5--3----2--------|-------------------------|--------------------------|
----3-------------3--4--|--5----5--5--5--5--5--5--|--5--5--5--5--5--5--5--3--|
------------------------|-------------------------|--------------------------|


                                                      
--------------------------|--------------------------|
--------------------------|--------------------------|
--------------------------|--------------------------|
--1--1--1--1--1--1--1--1--|--3--3--3--3--3--3--3--3--|


                                                      
--------------------------|--------------------------|
--------------------------|--------------------------|
--3--3--2--2--------------|--3--3--3--3--3--3--3--3--|
--------------5--5--3--3--|--------------------------|


                                                      
--------------------------|--------------------------|
--------------------------|--------------------------|
--2--2--2--2--2--2--2--2--|--------------------------|
--------------------------|--5--5--5--5--5--5--5--5--|

[ Tab from: http://www.guitartabs.cc/tabs/l/larc_en_ciel/jiyuu_e_no_shoutai_btab.html ]
                                                      
--------------------------|--------------------------|
--------------------------|--------------------------|
--------------------2--4--|--5--5--5--5--5--5--5--5--|
--3--3--3--3--3--5--------|--------------------------|


                                                                                
--------------------------|--------------------------|-------------------------|
--------------------------|--------------------------|-------------------------|
--4--4--4--4--4--4--4--4--|--3--3--3--3--3--3--3--3--|--------------------2----|
--------------------------|--------------------------|--3--3--3--3--3--5-------|


                                                      
--------------------------|--------------------------|
--------------------------|--------------------------|
--3--3--3--3--3--3--3--3--|--2--2--2--2--2--2--2--2--|
--------------------------|--------------------------|


                                                      
--------------------------|--------------------------|
--------------------------|--------------------------|
--------------------------|--------------------------|
--5--5--5--5--5--5--5--5--|--3--3--3--3--3--3--3--3--|


                                                      
--------------------------|--------------------------|
--------------------------|--------------------------|
--------------------------|--------------------------|
--1--1--1--1--1--1--1--1--|--3--3--3--3--3--3--3--3--|


                                                      
--------------------------|--------------------------|
--------------------------|--------------------------|
--------------------------|--------------------------|
--0--0--0--0--0--0--0--0--|--5--5--5--5--5--5--3--3--|


                                                                          
--------------------------|---------------------|------------------------|
--------------------------|---------------------|------------------------|
--------------------------|---------------------|-------------3----------|
--1--1--1--1--1--1--1--1--|--3--3--3------------|--5--5--5---------5--5--|


                                                                     
---------------------|----------------------|-----------------------|
---------------------|----------------------|-----------------------|
---------------------|----------------------|-------------3---------|
--4--4--4------------|--2--------2--2----2--|--1--1--1-------1------|


                                                                            
-------------------------|-------------------------|-----------------------|
-------------------------|-------------------------|-----------------------|
-------------------------|-------------------------|-------------3---------|
--1--1--1--1--1----1--1--|--3--3--3--3--3/---15/---|--5--5--5---------5----|


                                                                            
-----------------------|--------------------------|------------------------|
-----------------------|--------------------------|------------------------|
-------------3---------|----------------2----5----|--------------5---------|
--4--4--4---------4----|--3--------3--------------|--2--2--2--2-----2------|


                                                                      
----------------------|----------------------|-----------------------|
----------------------|----------------------|-----------------3/-5--|
----------------------|----------------------|-----------------------|
--1------0--1------0--|--1------0--1------0--|--3------1--3----------|


                                                                            
--------------------------|------------------------|-----------------------|
--5--5--5--5--5--5--5/-0--|------------------------|-------5--3----2-------|
--------------------------|--7----7----7--5--3-----|----3-------------3----|
--------------------------|---------------------3--|-----------------------|


                                                                             
-----------------------|---------------------------|------------------------|
-----------------------|-----------------2--2/-14--|-------2----2-----------|
-----------------------|--------3-----3------------|---------------5--3-----|
--3----3--3----0--3----|--5--5-----5---------------|--3------------------3--|


                                                                               
------------------------|--------------------------|--------------------------|
-------5--3----2--------|--------------------------|--------------------------|
----3-------------3--4--|--5--5--5--5--5--5--5--5--|--5--5--5--5--5--5--5--3--|
------------------------|--------------------------|--------------------------|


                                                                          
--------------------------|--------------------------|-------------------|
--------------------------|--------------------------|-------------------|
--------------------------|--------------------------|--3----------------|
--1--1--1--1--1--1--1--1--|--3--3--3--3--3--3--3--3--|-------------------|


                                                                
-------------------|-------------------|-----------------------|
-------------------|-------------------|-----------------------|
--2----------------|-------------------|-----------3----5/-17/-|
-------------------|--5----------------|--3--------------------|


                                                                                
-------------------------|--------------------------|--------------------------|
-------------------------|--------------------------|--------------------------|
--5----5--5--5--5--5--5--|--4--4--4--4--4--4--4--4--|--3--3--3--3--3--3--3--3--|
-------------------------|--------------------------|--------------------------|


                                                                                
-------------------------|--------------------------|--------------------------|
-------------------------|--------------------------|--------------------------|
--------------------2----|--3--3--3--3--3--3--3--3--|--2--2--2--2--2--2--2--2--|
--3--3--3--3--3--5-------|--------------------------|--------------------------|


                                                      
--------------------------|--------------------------|
--------------------------|--------------------------|
--------------------------|--------------------------|
--5--5--5--5--5--5--5--5--|--3--3--3--3--3--3--3--3--|


                                                                                
--------------------------|-------------------------|--------------------------|
--------------------------|--5--5--5--5--5--5--5/---|--------------------------|
--------------------------|-------------------------|--3--3--3--3--3--3--3--3--|
--1--1--1--1--1--1--1--1--|-------------------------|--------------------------|


                                                      
--------------------------|--------------------------|
--------------------------|--------------------------|
--2--2--2--2--2--2--2--2--|--------------------------|
--------------------------|--5--5--5--5--5--5--5--5--|


                                                      
--------------------------|--------------------------|
--------------------------|--------------------------|
--------------------2--4--|--5--5--5--5--5--5--5--5--|
--3--3--3--3--3--5--------|--------------------------|


                                                                                
--------------------------|--------------------------|-------------------------|
--------------------------|--------------------------|-------------------------|
--4--4--4--4--4--4--4--4--|--3--3--3--3--3--3--3--3--|--------------------2----|
--------------------------|--------------------------|--3--3--3--3--3--5-------|


                                                      
--------------------------|--------------------------|
--------------------------|--------------------------|
--3--3--3--3--3--3--3--3--|--2--2--2--2--2--2--2--2--|
--------------------------|--------------------------|


                                                      
--------------------------|--------------------------|
--------------------------|--------------------------|
--------------------------|--------------------------|
--5--5--5--5--5--5--5--5--|--3--3--3--3--3--3--3--3--|


                                                      
--------------------------|--------------------------|
--------------------------|--------------------------|
--------------------------|--------------------------|
--1--1--1--1--1--1--1--1--|--3--3--3--3--3--3--3--3--|


                                                      
--------------------------|--------------------------|
--------------------------|--------------------------|
--------------------------|--------------------------|
--0--0--0--0--0--0--0--0--|--5--5--5--5--5--5--3--3--|


                                                                       
--------------------------|---------------------|---------------------|
--------------------------|---------------------|---------------------|
--------------------------|---------------------|--3------------2--3--|
--1--1--1--1--1--1--1--1--|--3--3--3------------|---------------------|


                                                                         
----------------------|------------------------|------------------------|
----------------------|--------------5--3/-----|-----5----3----2--------|
--5----5--3------2/---|-----2--5--3------------|------------------5--2--|
----------------------|--3---------------------|--3---------------------|


                                                                      
---------------------|----------------------|------------------------|
---------------------|----------------------|--------------5--3/-----|
--3------------2--3--|--5----5--3------2/---|-----2--5--3------------|
---------------------|----------------------|--3---------------------|


                                                                
------------------------|-------------------|------------------|
--5--3----2-------------|-------------------|------------------|
---------------5--5--2--|--3----------------|------------------|
------------------------|-------------------|------------------|


                                                                            
------------------|------------------|------------------|------------------|
------------------|------------------|------------------|------------------|
------------------|------------------|------------------|------------------|
------------------|------------------|------------------|------------------|


                                                                            
------------------|------------------|------------------|------------------|
------------------|------------------|------------------|------------------|
------------------|------------------|------------------|------------------|
------------------|------------------|------------------|------------------|


                                                                            
------------------|------------------|------------------|------------------|
------------------|------------------|------------------|------------------|
------------------|------------------|------------------|------------------|
------------------|------------------|------------------|------------------|


                    
------------------||
------------------||
------------------||
------------------||
Comments