Larc En Ciel - Blurry Eyes Chords & Tabs

 

Blurry Eyes Chords & Tabs

Larc En Ciel Chords & Tabs

Version: 2 Type: Bass Tab 0 ratings
1 star 2 stars 3 stars 4 stars 5 stars
comments

Blurry Eyes Bass Tab

song: Album: Tierra
Tuning: EADG
Time: 4/4
Tabbed by: Shinryuu(betafucha@yahoo.com)


INTRO
                                                              10
|-----------------|-----------------|-----------------|---------10------|
|-0---------------|-----------------|-----------------|-----------------|
|-----------------|-4---------------|-2---------------|-/-----*-*---\---|
|-----------------|-----------------|-----------------|-----------------|

|-0---------------|-----------------|-----------------|-------------------|
|-----------------|-4---------------|-2-------\---2-/-|-5-5-5-5-4-4-2-0---|  9/8
|-----------------|-----------------|-----------------|-------------------| <---
|-----------------|-----------------|-----------------|-------------------|

PRE-VERSE

|-----------------|-----------------|-----------------|-------------0---|
|---0-2---0-------|---0-2---0-------|---4---4-------4-|---4-------4-----|
|-0---------4-4---|-0---------4-2---|-2---2---2---2---|-2---2---2-------|
|-----------------|-----------------|-----------------|-----------------|

|---0-2---0-------|---0-2---0-------|-----------------|-----------------|
|-0---------4-4---|-0---------4-2---|-2---2---2---2---|-2---2-------0---|
|-----------------|-----------------|---0-------0-----|---0---0-2-4-----|
|-----------------|-----------------|-----------------|-----------------|

|-----------------|-----------------|-----------------|-------------0---|
|---0-2---0-------|---0-2---0-------|---4---4-------4-|---4-------4-----|
|-0---------4-4---|-0---------4-2---|-2---2---2---2---|-2---2---2-------|
|-----------------|-----------------|-----------------|-----------------|

|---0-2---0-------|---0-2---0-------|---2-------2-----|---------------|
|-0---------4-4---|-0---------4-2---|-2---2---2---2---|/7---7-5-5-4-4-|  7/8
|-----------------|-----------------|-----------------|---------------| <---
|-----------------|-----------------|-----------------|---------------|

|-----------------|-----------------|-----------------|-----------------|
|-0---0-----------|-0-0-------------|-0-------0-----0-|/7-5---4---4-2---|
|-------0---0-4---|-------0---0-4---|-----0-4-----0---|-----------------|
|-----------------|-----------------|-----------------|-----------------|

VERSE

|-----------------|-----------------|-----------------|-----------------|
|-0---0-4---4-0---|-----------------|-------0---0-----|-------0---2-4---|
|-----------------|-0-0-0-4---4-0---|-2-2-2-------2---|-2-2-2-----------|
|-----------------|-----------------|-----------------|-----------------|

|-----------------|-----------------|-----------------|-----------------|
|-----------------|-------------0---|-------2---2-0---|---0-------------|
|-------2---2-----|-------2---4-----|-0---4-----------|-4-----4---4-0---|
|-3---3-------3---|-3-3-3-----------|-----------------|-----------------|

|-----------------|-----------------|-----------------|-----------------|
|-0---0-4---4-0---|-----------------|-------0---0-----|-------0-----0-2-|
|-----------------|-0-0-0-4----4-0--|-2---2-------2---|-2---2-----2-----|
|-----------------|-----------------|-----------------|-----------------|

|-----------------|-----------------|-2-0-----0-------|-----------------|
|-----------------|-------------0---|-------4---4---2-|-4-2-----2-0-----|
|-------2---2-----|-------2---4-----|-----------------|-------4-----4---|
|-3---3-------3---|-3-3-3-----------|-----------------|-----------------|

BRIDGE
                                                                14  14
|-----------------|-----------------|-----------------|-----------------|
|-----------------|-----------------|-----------------|-----------------|
|-----------------|-------------5-\-|-----------------|-----------------|
|-3-----3-----\---|-----------2-----|-2-2---2-\---/---|--------(*)0h*-\-|

|-----------------|-----------------|-----------------|-----------------|
|-----------------|-----------------|---------------2-|---0-------0-----|
|-----------------|-------------5-\-|-----------------|-------4-----4---|
|-3-----3-----\---|-----------2-----|-2-2---2---------|-----------------|

|-----------------|-----------------|-----------------|-----------------|
|-------0---0-----|-------0---0-----|-------2---2-----|-------2---------|
|-----------------|-----------------|-0-0-0-------0---|-1-1-1-----3-5-\-|
|-3---3-------3---|-4---4-------4---|-----------------|-----------------|

VERSE

|-----------------|-----------------|-----------------|-----------------|
|-0---0-4---4-0---|-------------2---|-----0-4---4-2---|-0-0-2-0---0-----|
|-----------------|-0-0-0-4---4-----|-2-2-------------|-------------0---|
|-----------------|-----------------|-----------------|-----------------|

|-----------------|-----------------|-----------------|-----------------|
|-----------------|-------------0---|-------2---2-0---|---0-------------|
|-------2---2-----|-------2---4-----|-0---4-----------|-4-----4---4-0---|
|-3---3-------3---|-3-3-3-----------|-----------------|-----------------|

|-----------------|-----------------|-----------------|-----------------|
|-0---0-4---4-0---|-------------2---|-------4---4-2---|-----0-2---0---0-|
|-----------------|-0-0-0-4---4-----|-2---0-----------|-4-----------4---|
|-----------------|-----------------|-----------------|-----------------|

|-----------------|-----------------|-2-0---2---------|-----------------|
|-----------------|-------------0---|-----4---2-0-2-0-|---2-0---0-------|
|-------2---2-----|-------2---4-----|-----------------|-4-----4---4-2-0-|
|-3---3-------3---|-3-3-3-----------|-----------------|-----------------|

BRIDGE

|-----------------|-----------------|-----------------|-----------------|
|-----------------|-----------------|---------------3-|---x-x-2---3-5-\-|
|-----------------|-------------5-\-|-----------------|-----------------|
|-3-----3---------|-\---------2-----|-2-2---2-/-\-----|-----------------|

|-----------------|-----------------|-----------------|-----------------|
|-----------------|-----------------|-------------0-2-|---0-------0-----|
|-----------------|-------------5-\-|-----------0-----|-------4-----4---|
|-3-----3-----\---|-----------2-----|-2-2-2-2---------|-----------------|

|-----------------|-----------------|-----------------|-----------------|
|-------0---0-----|-------0---0-----|-------2---2-----|-------2---2-----|
|-----------------|-----------------|-0-0-0-------0---|-1-1-1-------1-/-|
|-3---3-------3---|-4---4-------4---|-----------------|-----------------|

|-------------4---|-2-0-------------|-4-2-0-2---------|-----------------|
|-----0-4---4-----|-------4---2-4-2-|---------4-2-4-2-|-0-4-2-0---2-0---|
|-2---------------|-----------------|-----------------|---------4-----4-|
|-----------------|-----------------|-----------------|-----------------|

CHORUS

|-----------------|-----------------|-----------------|-----------------|
|-0---0-----------|-0-0-0-4---4-0---|-----------------|-----------------|
|-------0---0-4/5-|-----------------|-0-0-0-4---4-0---|-1-1-1-4---4-1-/-|
|-----------------|-----------------|-----------------|-----------------|

|-----------------|-----------------|-----------------|-----------------|
|-----0-----0-----|-----0-----0-----|-------0---0---0-|-2-2-2-0---0-----|
|-2-----1-----1---|-0---------------|-----4-------4---|-------------4---|
|-----------------|-------4-----4---|-3---------------|-----------------|

|-----------------|-----------------|-----------------|-----------------|
|-0---0-----------|-0-0-0-4---4-0---|-------------0---|-2-2-0-----0-----|
|-------0---0-4/5-|-----------------|-0-0-0-4---4-----|-------4-----4---|
|-----------------|-----------------|-----------------|-----------------|
[ Tab from: http://www.guitartabs.cc/tabs/l/larc_en_ciel/blurry_eyes_btab_ver_2.html ]
|-----------------|-----------------|-----------------|-----------------|
|-----0-----0-----|-----0-----0-----|-------0---0---0-|-2-2-2-0---------|
|-2-----1-----1---|-0---------------|-----4-------4---|-----------0-4-/-|
|-----------------|-------4-----4---|-3---------------|-----------------|

FILL+SOLO

|-------------3-/-|-7-----------7-7-|-7---7-7-7---7-7-|-7-7-7-7-6-7-6-\-|
|-----------------|-----------------|-----------------|-----------------|
|-5---------------|-----------------|-----------------|-----------------|
|-----------------|-----------------|-----------------|-----------------|

|-----------------|-----------------|-----------------|-----------------|
|-----------------|-----------------|-----------------|---------2-0-----|
|---0-5---0-5---0-|---0-5---0-5---0-|---0-5---0-5---0-|---0-4-4-----4---|
|-2-----2-----2---|-2-----2-----2---|-2-----2-----2---|-2-------------2-|

|-----------------|-----------------|-----------------|-----------------|
|-----------------|-----------------|-----------------|-----------------|
|-----------------|-----------------|-0-0---0---------|-------------5-\-|
|-3-3---3---------|-----------------|-----------------|-----------2-----|

|-----------------|-----------------|-----------------|-1h2---2-2-0-----|
|-----------------|-----------------|-----------------|-------------4---|
|-----------------|-------------5-\-|-0-0---0---------|-----------------|
|-3-3---3---------|-----------2-----|-----------------|-----------------|

|-----------------|-----------------|-----------------|-----------------|
|-------0---0-----|-------0---0-----|-------2---2-----|-------2---2-----|
|-----------------|-----------------|-0-0-0-------0---|-1-1-1-------1---|
|-3---3-------3---|-4---4-------4---|-----------------|-----------------|

|-----------------|-----------------|-----------------|-----------------|
|-----0-----0---0-|-----0-----0---0-|-----2-----2---2-|-----2-----2---2-|
|-----------------|-----------------|-0-0---0-0---0---|-1-1---1-1---1---|
|-3-3---3-3---3---|-4-4---4-4---4---|-----------------|-----------------|

|-------------|-------------|-------------|-------------|
|-4-----0-----|-2-----------|-4-----0-----|-2-----------|
|-------------|-------4-----|-------------|-------4-----|
|-------------|-------------|-------------|-------------|       3 / 4
                                                            <---------    
|-------------|-------------|-------------|-------------|        TIME
|-4-----0-----|-2-----------|-4-----0-----|-2-2-2-------|
|-------------|-------4-----|-------------|-------4-----|
|-------------|-------------|-------------|-------------|

|-------------|
|-------------|
|-------------|
|-------------|

INTRO

|-----------------|-----------------|-----------------|-----------------|
|-0---------------|-----------------|-----------------|-----------------|
|-----------------|-4---------------|-2-----------2-/-|-(10)------------|
|-----------------|-----------------|-----------------|-----------------|

|-0---------------|-----------------|-----------------|-------------------|
|-----------------|-4---------------|-2-----------\---|-5---5---4-4-2-0---|  9/8
|-----------------|-----------------|-----------------|-------------------| <---
|-----------------|-----------------|-----------------|-------------------|

PRE-VERSE

|-----------------|-----------------|-----------------|-------------0---|
|---0-2---0-------|---0-2---0-------|---4---4-------4-|---4-------4-----|
|-0---------4-4---|-0---------4-2---|-2---2---2---2---|-2---2---2-------|
|-----------------|-----------------|-----------------|-----------------|

|---0-2---0-------|---0-2---0-------|-----------------|-2-0-----0-2-\-----|
|-0---------4-4---|-0---------4-2---|-2---2---------0-|-----4-------------|  9/8
|-----------------|-----------------|---0---0---0-----|-------------------| <---
|-----------------|-----------------|-----------------|-------------------|

CHORUS

|-----------------|-----------------|-----------------|-----------------|
|-0---0-----------|-0-0-0-4---4-0---|-----------------|-----------------|
|-------0---0-4/5-|-----------------|-0-0-0-4---4-0---|-1-1-1-4---4-1-/-|
|-----------------|-----------------|-----------------|-----------------|

|-----------------|-----------------|-----------------|-----------------|
|-----0-----0-----|-----0-----0-----|-------0---0---0-|-2-2-2-0---0-----|
|-2-----1-----1---|-0---------------|-----4-------4---|-------------4-4-|
|-----------------|-------4-----4---|-3---------------|-----------------|

|-----------------|-----------------|-----------------|-----------------|
|-0---0-----------|-0-0-0-4---4-0---|-----------------|-----------------|
|-------0---0-4/5-|-----------------|-0-0-0-4---4-0---|-1-1-1-4---4-1-/-|
|-----------------|-----------------|-----------------|-----------------|

|-----------------|-----------------|-----------------|-2-2-2-2-0-0-----|
|-----0-----0-----|-----0-----0-----|-------0---0---0-|-------------4-4-|
|-2-----1-----1---|-0---------------|-----4-------4---|-----------------|
|-----------------|-------4-----4---|-3---------------|-----------------|

|-----------------|-----------------|-----------------|-----------------|
|-0---0-----------|-0-0-0-4---4-0---|-------2---2-0---|---0-0-----------|
|-------0---0-4/5-|-----------------|-0-0-0-----------|-4-----4---4-0---|
|-----------------|-----------------|-----------------|-----------------|

|-----------------|-----------------|-----------------|-----------------|
|-----0-----0-----|-----0-----0-----|-------0---0-----|-0---0-2---0-----|
|-2-----1-----1---|-0---------------|-----4-------4-0-|---4---------4-0-|
|-----------------|-------4-----4---|-3---------------|-----------------|

|-----------------|-----------------|-----------------|-----------------|
|-0---0-----------|-0-0-0-4---4-0---|-----------------|-----------------|
|-------0---0-4/5-|-----------------|-0-0-0-4---4-0---|-1-1-1-4---4-1-/-|
|-----------------|-----------------|-----------------|-----------------|

|-----------------|-----------------|-----------------|-2-2-2-2-0-0-----|
|-----0-----0-----|-----0-----0-----|-------0---0---0-|-------------4-4-|
|-2-----1-----1---|-0---------------|-----4-------4---|-----------------|
|-----------------|-------4-----4---|-3---------------|-----------------|

ENDING

|-----------------|-----------------|-----------------|-----------------||
|*----------------|-----------------|-----------------|----------------*||
|*2-2-2-2-2-2-2-2-|-----------------|-0-0-0-0-0-0-0-0-|----------------*||
|-----------------|-3-3-3-3-3-3-3-3-|-----------------|-2-2-2-2-2-2-2-2-||

|-----------------|-----------------|-----------------|-----------------|
|-----4-----4---4-|-----0-----0-----|-----2-----2---2-|-------4---2-0---|
|-2-2---2-2---2---|-------------4-2-|-0-0---0-0---0---|---------------4-|
|-----------------|-3-3---3-3-------|-----------------|-2-2-2-----------|

|-----------------|-----------------|-----------------|-----------------|
|-----4-----4---4-|-----0-----0-----|-----2-----2---2-|-----------------|
|-2-2---2-2---2---|-------------4-2-|-0-0---0-0---0---|---------------0-|
|-----------------|-3-3---3-3-------|-----------------|-2-2-2-2---2-4---|

|-------------|-------------|-------------|-------------|
|-------------|-------------|-------------|-------------|
|-2-----------|-0-----------|-2-----------|-0-----------|
|-------3-----|-------2-----|-------3-----|-------2-----|       3 / 4
                                                           <---------
|-------------|-------------|-------------|-------------||       TIME
|-------------|-------------|-------------|-------------||
|-2-----------|-0-----------|-2-----------|-0-0-0-------||
|-------3-----|-------2-----|-------3-----|-------2-----||

Shimatta ^_^
Comments