Lanie Lane - Oh Well Thats What You Get Falling In Love With A Cowboy Chords & Tabs

 

Oh Well Thats What You Get Falling In Love With A Cowboy Chords & Tabs

Lanie Lane Chords & Tabs

Version: 1 Type: Tab 0 ratings
1 star 2 stars 3 stars 4 stars 5 stars
comments

Oh Well Thats What You Get Falling In Love With A Cowboy Tab

Oh Well That’s What You Get Falling In Love With A Cowboy
Lanie Lane

Electric tremolo guitar (R for Rake)

Intro                                          Verse 
   R
e|-2-------------------0-----7----------------|--------|-7----------------|
B|-0-------------------0-----8----------------|--------|-8----------------|
G|-2-------------------0-----9----------------|-4 bars-|-9----------------|
D|-1---2/4-4-4-5-4-2-0-2-----9----------------|-tacet--|-9----0-2-0-------|
A|-2-------------------2-----7-----------2----|--------|-7----------2-0---|
E|---------------------0-----0----0-/3-5---0--|--------|-0--------------3-|


Chorus
     R    R
e|---3-|--0-----------------------------------3---5---7--7----7--|--------|
B|---3-|--0----------------------------------------------7----8--|--------|
G|---0-|--0--------------------------------/4---/5--/7---8----9--|--------|
D|---0-|--2-------------2-2--0-2-0-----------------------7----9--|--0-1-2-|
A|---2-|--2---------2--------------2-0-------------------9----7--|-2------|
E|---3-|--0--0-/3-5---0---------------3------------------7-------|--------|

Oh well… cowboy

[ Tab from: http://www.guitartabs.cc/tabs/l/lanie_lane/oh_well_thats_what_you_get_falling_in_love_with_a_cowboy_tab.html ]
  Verse 2                             Verse 3
e|-0----7---------------|------------|--0-----0--|
B|-0----8---------------|-Chorus-----|--0-----0--|
G|-0----9---------------|-as per-----|--0-----0--|
D|-2----9---0-2-0-------|-1st chorus-|--2-----2--|
A|-2----7---------2-0---|------------|--2-----2--|
E|-0------------------3-|------------|--0-----0--|


Final Chorus
     R      
e|---3-----7---7---5---3--0-----------------------------------3—-5---7--7-|
B|---3--------------------0---------------------------------------------7-|
G|---0---/7--/7--\5--\4---0---------------------------------/4-/5--/7---8-|
D|---0--------------------2------------0-h2---0-2-0---------------------7-|
A|---2--------------------2--------0-2--------------2-0-----------------9-|
E|---3--------------------0----0-3----------------------3---------------7-|


e|-0---------|---------|--------|------|
B|-0---------|---------|--------|------|
G|-0---------|---------|--------|------|
D|-2---0-1-2-|---------|--0-1-2-|--2---|
A|-2--2------|-2-0-----|-2------|--2---|
E|-0---------|-----3-0-|--------|--0---|

https://itunes.apple.com/au/album/oh-well-thats-what-you-get/id473587377
Comments