Lanemeyer - You And Me On The Big Screen Chords & Tabs

 

You And Me On The Big Screen Chords & Tabs

Lanemeyer Chords & Tabs

Version: 1 Type: Bass Tab 0 ratings
1 star 2 stars 3 stars 4 stars 5 stars
comments

You And Me On The Big Screen Bass Tab

BAND: Lanemeyer
SONG: You and Me on the Big Screen
TAB BY: -§é®vº (ZServo@aol.com)


Intro:
G|-----------------------------------------------------------------------|
D|-----------------------------------------------------------------------|
A|---7----------------7-7-7--------------7-7-7--------------7-7-7-7------|
E|-----------------------------------------------------------------------|


Pre-Verse/Verse*:
G|-----------------------------------------------------------------------|
D|-----------------------------------------------------------------------|
A|---7-7-7-7-7-7-7-7-----------------------------------------------------|
E|-------------------5-5-5-5-5-5-5-5--9-9-9-9--7-7-7-7--5-5-5-5--7-7-7-7-|

[ Tab from: http://www.guitartabs.cc/tabs/l/lanemeyer/you_and_me_on_the_big_screen_btab.html ]
Pre-Chorus:
G|-----------------------------------------------------------------------|
D|-----------------------------------------------------------------------|
A|-----------------------------------------------------------------------|
E|---9--9-9--7--7-7--5--5-5--7--7-7---9--9-9--7--7-7--5--5-5--7-7-7-7-7--|


Chorus:
G|-----------------------------------------------------------------------|
D|-----------------------------------------------------------------------|
A|---7-7-----------------------------7-7-7-7-----------------------------|
E|---------7-7----4-4----5-5------------------7-7-7-7--5-5-5-5--7-7-7-7--|


Bridge:
G|-----------------------------------------------------------------------|
D|-----------------------------------------------------------------------|
A|--7-7---------------------------------7-7------------------------------|
E|------------------------------5-7--------------------------------5-7---|

====================================================================================

* Towards the end of the song, play 
  each part 2x longer for the verse.
* Now listen to the song to know when 
  to play each part and for the rhythm.

Special Thanks: Dennis, Alex, and Nick (Phoenix Down)
Visit: http://phoenixdown.cjb.net
Shouts: Stem, Ben, Laurie, Jenni, Tit

Comments