Land Og Synir - Dreymir Chords & Tabs

 

Dreymir Chords & Tabs

Land Og Synir Chords & Tabs

Version: 2 Type: Tab 0 ratings
1 star 2 stars 3 stars 4 stars 5 stars
comments

Dreymir Tab

   
                                      <<<>>>
Song: Dreymir
Artist: Land og synir (iceland)
Tabbed by ?ttar

Land og synir is a very popular pop band here in Iceland and Dreymir is a good and romantic
song. The song is mostly C Am G with few changes but you heft to play the song very slowly
so it will sound right.

INTRO                                                 [C] (down stroke) slowly
e |----------------------------------|----------------------------------|
B |---------1-----1-----1------------|---------3------------------------|
G |-------0---0-----0-----0----------|-------0---0----------------------|
D |-----2-------2-----2-----2--------|-----2-------2--------------------|
A |---3------------------------------|---3------------------------------|
E |----------------------------------|----------------------------------|


VERSE
  C        C      C    C               C      C      C    C
e |----------------------------------|----------------------------------|
B |---------1-----1-----1------------|---------1-----1------1-----------|
G |-------0---0-----0-----0----------|-------0---0-----0------0---------|
D |-----2-------2-----2-----2--------|-----2-------2-----2------2-------|
A |---3------------------------------|---3------------------------------|
E |----------------------------------|----------------------------------|
   Am              Am     Am           G     G
e |----------------------------------|----------------------------------|
B |---------------1-------1----------|----------------------------------|
G |-------------2---2----2--2--------|--------0-------------------------|
D |-----------2-------2-2-----2-2----|------0---0-----------------------|
A |---3--0-0-------------------------|----2-------2-2-------------------|
E |----------------------------------|--3-------------------------------|


CHORUS
  C        C      C    C               C      C      C    C
e |----------------------------------|----------------------------------|
B |---------1-----1-----1------------|---------1-----1------1-----------|
G |-------0---0-----0-----0----------|-------0---0-----0------0---------|
D |-----2-------2-----2-----2--------|-----2-------2-----2------2-------|
A |---3------------------------------|---3------------------------------|
E |----------------------------------|----------------------------------|
   Am              Am     Am           G     G
e |----------------------------------|----------------------------------|
B |---------------1-------1----------|----------------------------------|
G |-------------2---2----2--2--------|--------0-------------------------|
D |-----------2-------2-2-----2-2----|------0---0-----------------------|
A |---3--0-0-------------------------|----2-------2-2-------------------|
E |----------------------------------|--3-------------------------------|
[ Tab from: http://www.guitartabs.cc/tabs/l/land_og_synir/dreymir_tab_ver_2.html ]
  C        C      C    C               C      C      C    C
e |----------------------------------|----------------------------------|
B |---------1-----1-----1------------|---------1-----1------1-----------|
G |-------0---0-----0-----0----------|-------0---0-----0------0---------|
D |-----2-------2-----2-----2--------|-----2-------2-----2------2-------|
A |---3------------------------------|---3------------------------------|
E |----------------------------------|----------------------------------|
   Am              Am     Am           G     G
e |----------------------------------|----------------------------------|
B |---------------1-------1----------|----------------------------------|
G |-------------2---2----2--2--------|--------0-------------------------|
D |-----------2-------2-2-----2-2----|------0---0-----------------------|
A |---3--0-0-------------------------|----2-------2-2-------------------|
E |----------------------------------|--3-------------------------------|


OUTRO
[C],[G],
[C],[G],
[C],[F],

It goes something like this:
_____________
|Intro      |
|verse x2   |
|chorus     |
|verse x2   |
|chorus     |
|outro      |
|chorus (*+)|     (*+) it mean that you?ll play the last chorus like this C, Am, G, fast and
-------------        all strings at same time en end with G,C,G,C,G and slow C. you?ll
                     heft to play it fast and dont stop untill it is done

LYRICS:

(verse)

Myrkri? fer, hverfur ?r huga m?r
?egar ?? brosir bl?tt til m?n
?g dag hvern dvel hj? ??r
? ?myndun ?g ?vallt s?
?a? ert ?? sem mig derymir um
?g ?ig elska vill og ?r?

(Chorus)

?v? mig dreymir
allt um ?ig, ??na ?st
og mig dreymir
?ll m?n t?r ni?ur vanga ?in
og mig dreymir bara ?ig

(verse)

Vakna ei vil
?egar mig dreymir ?ig
?g vil sj? ?g vil horfa ? ?ig
geta haldi? ?tan um ?ig


(Chorus)


(Outro)

?g vil finna allt betur en n?
?g vill sj? allt betur en ??
?g vill finna a? ?a? s?rt ??

(Chorus)(*+)
        C    Am
?v? mig dreymir
        G         C
allt um ?ig, ??na ?st
C          Am
og mig dreymir
        G               C
?ll m?n t?r ni?ur vanga ?inn
C          Am
og mig dreymir
C          Am
og mig dreymir
C          Am       G
og mig dreymir bara ?ig
     C     G
Bara ?ig ? n?tt

G, C, G, C, G, slow C
_________________________________________________________________________________________________
                         |
                         |            it?s not 100% correct but it sound?s just the same
                         |                   when I play it along with the CD.
        Peace            |
                         |				 ?ttar
            O            |
   O                     |
    o  \``/              |
       /o `))            |
      /_/\_ss))          |
          |_ss))/|       |
         |__ss))_|       |
        |__sss))_|       |_______________________________________________________________________
        |___ss))\|       |
         |_ss))          |
          )_s))          |
    (`(  /_s)            |
     (_\/_s))            |
      (\/))              |                           ratto@simnet.is
                         |
			 |
                         |
                         |
                         |
                         |
Comments