Land Of Airplanes - Johnson Chords & Tabs

 

Johnson Chords & Tabs

Land Of Airplanes Chords & Tabs

Version: 1 Type: Tab 0 ratings
1 star 2 stars 3 stars 4 stars 5 stars
comments

Johnson Tab

Land of Airplanes (Delta, 2004)

    "Johnson"



(Intro)
------------------------------------------------- 
---2-----------------------2--------------------- 
---2--------5-----5--------2--------5-----5------ 
---2-----------------------2---------------------
---0----/6-----6-----6----0----/6-----6-----6-- 
------------------------------------------------- 


-------------------------------------------------
---2----------------------2---2---2--------------
---2--------5-----5-------2---2---2-------5------
---2----------------------2---2---2--------------
---0----/6-----6-----6---0---0---0---/6-----6---
-------------------------------------------------

[ Tab from: http://www.guitartabs.cc/tabs/l/land_of_airplanes/johnson_tab.html ]
-------------------------------------------------
---0-0-0-0-0-0--0-0-0--/0-0--0----0-0-0---/0-0-0-
---5-5-5-5-5-5--2-2-2--/8-8--8----2-2-2---/5-5-5-
---5-5-5-5-5-5--2-2-2--/7-7--7----2-2-2---/5-5-5-
---0-0-0-0-0-0--0-0-0--/0-0--0----0-0-0---/0-0-0-
-------------------------------------------------


-------------------------------------------------
---0-0-0----2-2-2--------------------------------
---2-2-2----2-2-2--------------------------------
---2-2-2----2-2-2--------------------------------
---0-0-0----0-0-0--------------------------------
-------------------------------------------------




(Coupl.)
------------------------------------------------------
------------------------------------------------------
------------------------------------------------------
---7-----7--6-----6---(7-7-7-7-7-7-7-7-7-7-7-7-7-7-7-7) 
Comments