Lamb Of God - Remorse Is For The Dead Chords & Tabs

 

Remorse Is For The Dead Chords & Tabs

Lamb Of God Chords & Tabs

Version: 5 Type: Tab 0 ratings
1 star 2 stars 3 stars 4 stars 5 stars
comments

Remorse Is For The Dead Tab

Lamb of God - Remorse is for the Dead
Tabbed by: Victor Fernandez
Email: rapblows@gmail.com

Tuning: Drop D


Gtr. 1, let ring
|-------------------------------------------------|
|-------------------------------------------------|
|-------------------------------------------------|
|---0-7-0-7-0---0-7-0-7-0---0-8-0-8-0---0-7-0-5-0-|
|-------------------------------------------------|
|-0-----------7-----------8-----------5-----------|

|-------------------------------------------------|
|-------------------------------------------------|
|-----------------------------------------2---0---|
|---0-7-0-7-0---0-5-0-5-0---0-7-0-7h8---0-------0-|
|-------------------------------------------------|
|-7-----------3-----------5-----------1-----1-----|

|-------------------------------------------------|
|-------------------------------------------------|
|-------------------------------------------------|
|---0-7-0-7-0---0-7-0-7-0---0-8-0-8-0---0-7-0-5-0-|
|-------------------------------------------------|
|-0-----------7-----------8-----------5-----------|

|-------------------------------------------------|
|-------------------------------------------------|
|-----------------------------------------2---0---|
|---0-7-0-7-0---0-5-0-5-0---0-7-0-7h8---0-------0-|
|-------------------------------------------------|
|-7-----------3-----------5-----------1-----1-----|

|-------------------------------------------------|
|-------------------------------------------------|
|-------------------------------------------------|
|---0-7-0-7-0---0-7-0-7-0---0-8-0-8-0---0-7-0-5-0-|
|-------------------------------------------------|
|-0-----------7-----------8-----------5-----------|
|
|Gtr. 2, let ring
|-------------------------------------------------|
|-------------------------------------------------|
|-----2-----------2-----------3-----------0-------|
|---0-----------0-----------0-----------0---------|
|-0-----------0-----------0-----------0-----------|
|-------------------------------------------------|

|-------------------------------------------------|
|-------------------------------------------------|
|-----------------------------------------2---0---|
|---0-7-0-7-0---0-5-0-5-0---0-7-0-7h8---0-------0-|
|-------------------------------------------------|
|-7-----------3-----------5-----------1-----1-----|
|
|
|-------------------------------------------------|
|-------------------------------------------------|
|-----2-----------------------0-----------2---0---|
|---0-----------0-3---------0-----------0-------0-|
|-0-----------0-----------0-----------------------|
|-------------------------------------1-----1-----|

|-------------------------------------------------|
|-------------------------------------------------|
|-------------------------------------------------|
|---0-7-0-7-0---0-7-0-7-0---0-8-0-8-0---0-7-0-5-0-|
|-------------------------------------------------|
|-0-----------7-----------8-----------5-----------|
|
|
|-------------------------------------------------|
|-------------------------------------------------|
|-----2-----------2-----------3-----------0-------|
|---0-----------0-----------0-----------0---------|
|-0-----------0-----------0-----------0-----------|
|-------------------------------------------------|

|-------------------------------------------------|
|-------------------------------------------------|
|-----------------------------------------2---0---|
|---0-7-0-7-0---0-5-0-5-0---0-7-0-7h8---0-------0-|
|-------------------------------------------------|
|-7-----------3-----------5-----------1-----1-----|
|
|
|-------------------------------------------------|
|-------------------------------------------------|
|-----2-----------------------0-----------2---0---|
|---0-----------0-3---------0-----------0-------0-|
|-0-----------0-----------0-----------------------|
|-------------------------------------1-----1-----|

|-------------------------------------------------|
|-------------------------------------------------|
|-------------------------------------------------|
|---0-7-0-7-0---0-7-0-7-0---0-8-0-8-0---0-7-0-5-0-|
|-------------------------------------------------|
|-0-----------7-----------8-----------5-----------|
|
|
|-------------------------------------------------|
|-------------------------------------------------|
|-----2-----------2-----------3-----------0-------|
|---0-----------0-----------0-----------0---------|
|-0-----------0-----------0-----------0-----------|
|-------------------------------------------------|

|-------------------------------------------------|
|-------------------------------------------------|
|-----------------------------------------2---0---|
|---0-7-0-7-0---0-5-0-5-0---0-7-0-7h8---0-------0-|
|-------------------------------------------------|
|-7-----------3-----------5-----------1-----1-----|
|
|
|-------------------------------------------------|
|-------------------------------------------------|
|-----2-----------------------0-----------2---0---|
|---0-----------0-3---------0-----------0-------0-|
|-0-----------0-----------0-----------------------|
|-------------------------------------1-----1-----|

|-------------------------------------------------|
|-------------------------------------------------|
|-------------------------------------------------|
|---0-7-0-7-0---0-7-0-7-0---0-8-0-8-0---0-7-0-5-0-|
|-------------------------------------------------|
|-0-----------7-----------8-----------5-----------|
|
|
|-------------------------------------------------|
|-------------------------------------------------|
|-----2-----------2-----------3-----------0-------|
|---0-----------0-----------0-----------0---------|
|-0-----------0-----------0-----------0-----------|
|-------------------------------------------------|

|-------------------------------------------------|
|-------------------------------------------------|
|-----------------------------------------2---0---|
|---0-7-0-7-0---0-5-0-5-0---0-7-0-7h8---0-------0-|
|-------------------------------------------------|
|-7-----------3-----------5-----------1-----1-----|
|
|
|-------------------------------------------------|
|-------------------------------------------------|
|-----2-----------------------0-----------2---0---|
|---0-----------0-3---------0-----------0-------0-|
|-0-----------0-----------0-----------------------|
|-------------------------------------1-----1-----|

|-------------------------------------------------|
|-------------------------------------------------|
|-----2---0-------2---0-------2---0-------2---0---|
|---0-------0---0-------0---0-------0---0---------|
|-------------------------------------------------|
|-1-----1-----1-----1-----1-----1-----1-----1-----|
|
|
|-------------------------------------------------|
|-------------------------------------------------|
|-(0)---------------------------------------------|
|-(0)---------------------------------------------|
|-------------------------------------------------|
|-(1)---------------------------------------------|


Gtrs. 1 & 2
|-------------------------------------------------------------|
|-------------------------------------------------------------|
|-------------------------------------------------------------|
|-------------------------------------------------------------|
|-0-0-0-0-3-0-3h6-0000-00-00-00000000-3-0-3h6-0-3p2-0-2p1-0-1-|
|-0-0-0-0-3-0-3h6-0000-00-00-00000000-3-0-3h6-0-3p2-0-2p1-0-1-|
  . . . .   .     .... .. .. ........   .     .     .     .

|-------------------------------------------------------------|
|-------------------------------------------------------------|
|-------------------------------------------------------------|
|-------------------------------------------------------------|
|-0-0-0-0-3-0-3h6-0000-00-00-00000000-3-0-3h6-0-3p2-0-2p1-0-1-|
|-0-0-0-0-3-0-3h6-0000-00-00-00000000-3-0-3h6-0-3p2-0-2p1-0-1-|
  . . . .   .     .... .. .. ........   .     .     .     .

|-------------------------------------------------------------|
|-------------------------------------------------------------|
|-------------------------------------------------------------|
|-------------------------------------------------------------|
|-0-0-0-0-3-0-3h6-0000-00-00-00000000-3-0-3h6-0-3p2-0-2p1-0-1-|
|-0-0-0-0-3-0-3h6-0000-00-00-00000000-3-0-3h6-0-3p2-0-2p1-0-1-|
  . . . .   .     .... .. .. ........   .     .     .     .

|-------------------------------------------------------------|
|-------------------------------------------------------------|
|-------------------------------------------------------------|
|-------------------------------------------------------------|
|-0-0-0-0-3-0-3h6-0000-00-00-00000000-3-0-3h6-0-3p2-0-2p1-0-1-|
|-0-0-0-0-3-0-3h6-0000-00-00-00000000-3-0-3h6-0-3p2-0-2p1-0-1-|
  . . . .   .     .... .. .. ........   .     .     .     .

|---------------|
|---------------|
|---------------|
|-3------5------|
|-11-0-1-32-1-0-|
|--1-0-1--2-1-0-|
   . . .  . . .

 ___________________________
/        Gtr. 1 Only        \
|-----------------------------------------------------------|
|-----------------------------------------------------------|
|-----------------------------------------------------------|
|-----------------------------------------------------------|
|-----------------------------------------------------------|
|-6-0-0-6-0-0-6-0-7-0-0-7-0-0-4-6-7-6-0-0-000-0-000-0-000-0-|
    . .   . .   .   . .   . .         . . ... . ... . ... .

|-----------------------------------------------------------------|
|-----------------------------------------------------------------|
|-----------------------------------------------------------------|
|-----------------------------------------------------------------|
|-----------------------------0-3-2-----2-----2---1---------------|
|-6-0-0-6-0-0-6-0-7-0-0-7-0-0-------0-0---0-0---0---2-2-1-0-1-1-1-|
    . .   . .   .   . .   . .       . .   . .   .   . . . . . . .

|-----------------------------------------------------------|
|-----------------------------------------------------------|
|-----------------------------------------------------------|
|-----------------------------------------------------------|
|-----------------------------------------------------------|
|-6-0-0-6-0-0-6-0-7-0-0-7-0-0-4-6-7-6-0-0-000-0-000-0-000-0-|
    . .   . .   .   . .   . .         . . ... . ... . ... .

|-----------------------------------------------------------------|
|-----------------------------------------------------------------|
|-----------------------------------------------------------------|
|-----------------------------------------------------------------|
|-----------------------------0-3-2-----2-----2---1---------------|
|-6-0-0-6-0-0-6-0-7-0-0-7-0-0-------0-0---0-0---0---2-2-1-0-1-1-1-|
    . .   . .   .   . .   . .       . .   . .   .   . . . . . . .

|-----------------------------------------------------------|
|-----------------------------------------------------------|
|-----------------------------------------------------------|
|-6-----6-----6---7-----7-----4-6-7-6-----------------------|
|-6-0-0-6-0-0-6-0-7-0-0-7-0-0-4-6-7-6-0-0-000-0-000-0-000-0-|
|-6-0-0-6-0-0-6-0-7-0-0-7-0-0-4-6-7-6-0-0-000-0-000-0-000-0-|
    . .   . .   .   . .   . .         . . ... . ... . ... .

|-----------------------------------------------------------------|
|-----------------------------------------------------------------|
|-----------------------------------------------------------------|
|-6-----6-----6---7-----7-----7-5-4-----4-----4---3---------------|
|-6-0-0-6-0-0-6-0-7-0-0-7-0-0-7-3-2-0-0-2-0-0-2-0-1-2-2-1-0-1-1-1-|
|-6-0-0-6-0-0-6-0-7-0-0-7-0-0-7-----0-0---0-0---0---2-2-1-0-1-1-1-|
    . .   . .   .   . .   . .       . .   . .   .   . . . . . . .

|----------------------------------|
|----------------------------------|
|----------------------------------|
|----------------------------------|
|----------------------------------|
|-37333-3-3-3-37333-3-3-3-37333333-|
  ..... . . . ..... . . . ........

|----------------------------------|
|----------------------------------|
|----------------------------------|
|----------------------------------|
|----------------------------------|
|-37333-3-3-3-37333-3-3-3-37333333-|
  ..... . . . ..... . . . ........

|----------------------------------|
|----------------------------------|
|----------------------------------|
|----------------------------------|
|----------------------------------|
|-37333-3-3-3-37333-3-3-3-37333333-|
  ..... . . . ..... . . . ........
[ Tab from: http://www.guitartabs.cc/tabs/l/lamb_of_god/remorse_is_for_the_dead_tab_ver_5.html ]
|-----------------------------|
|-----------------------------|
|-----------------------------|
|---------------------------4-|
|---------------------------4-|
|-37333-3-3-3-37333-3-3-3-3-4-|
  ..... . . . ..... . . . .

|----------------------------------|
|----------------------------------|
|----------------------------------|
|----------------------------------|
|----------------------------------|
|-37333-3-3-3-37333-3-3-3-37333333-|

|-----------------------------|
|-----------------------------|
|-----------------------------|
|---------------------------4-|
|---------------------------4-|
|-37333-3-3-3-37333-3-3-3-3-4-|
                          .

|----------------------------------|
|----------------------------------|
|----------------------------------|
|----------------------------------|
|----------------------------------|
|-37333-3-3-3-37333-3-3-3-37333333-|

|-----------------------------|
|-----------------------------|
|-----------------------------|
|---------------------------4-|
|---------------------------4-|
|-37333-3-3-3-37333-3-3-3-3-4-|
                          .

 ___________________________
/        Gtr. 1 Only        \
|-----------------------------------------------------------|
|-----------------------------------------------------------|
|-----------------------------------------------------------|
|-----------------------------------------------------------|
|-----------------------------------------------------------|
|-6-0-0-6-0-0-6-0-7-0-0-7-0-0-4-6-7-6-0-0-000-0-000-0-000-0-|
    . .   . .   .   . .   . .         . . ... . ... . ... .

|-----------------------------------------------------------------|
|-----------------------------------------------------------------|
|-----------------------------------------------------------------|
|-----------------------------------------------------------------|
|-----------------------------0-3-2-----2-----2---1---------------|
|-6-0-0-6-0-0-6-0-7-0-0-7-0-0-------0-0---0-0---0---2-2-1-0-1-1-1-|
    . .   . .   .   . .   . .       . .   . .   .   . . . . . . .

|-----------------------------------------------------------|
|-----------------------------------------------------------|
|-----------------------------------------------------------|
|-----------------------------------------------------------|
|-----------------------------------------------------------|
|-6-0-0-6-0-0-6-0-7-0-0-7-0-0-4-6-7-6-0-0-000-0-000-0-000-0-|
    . .   . .   .   . .   . .         . . ... . ... . ... .

|-----------------------------------------------------------------|
|-----------------------------------------------------------------|
|-----------------------------------------------------------------|
|-----------------------------------------------------------------|
|-----------------------------0-3-2-----2-----2---1---------------|
|-6-0-0-6-0-0-6-0-7-0-0-7-0-0-------0-0---0-0---0---2-2-1-0-1-1-1-|
    . .   . .   .   . .   . .       . .   . .   .   . . . . . . .

|----------------------------------|
|----------------------------------|
|----------------------------------|
|----------------------------------|
|----------------------------------|
|-37333-3-3-3-37333-3-3-3-37333333-|
  ..... . . . ..... . . . ........

|----------------------------------|
|----------------------------------|
|----------------------------------|
|----------------------------------|
|----------------------------------|
|-37333-3-3-3-37333-3-3-3-37333333-|
  ..... . . . ..... . . . ........

|----------------------------------|
|----------------------------------|
|----------------------------------|
|----------------------------------|
|----------------------------------|
|-37333-3-3-3-37333-3-3-3-37333333-|
  ..... . . . ..... . . . ........

|-----------------------------|
|-----------------------------|
|-----------------------------|
|---------------------------4-|
|---------------------------4-|
|-37333-3-3-3-37333-3-3-3-3-4-|
  ..... . . . ..... . . . .

|----------------------------------|
|----------------------------------|
|----------------------------------|
|----------------------------------|
|----------------------------------|
|-37333-3-3-3-37333-3-3-3-37333333-|

|-----------------------------|
|-----------------------------|
|-----------------------------|
|---------------------------4-|
|---------------------------4-|
|-37333-3-3-3-37333-3-3-3-3-4-|
                          .

|----------------------------------|
|----------------------------------|
|----------------------------------|
|----------------------------------|
|----------------------------------|
|-37333-3-3-3-37333-3-3-3-37333333-|

|-----------------------------|
|-----------------------------|
|-----------------------------|
|-----------------------------|
|---------------------------0-|
|-37333-3-3-3-37333-3-3-3-3-0-|
                          .
                                  x12
|-----------------------------------|
|-----------------------------------|
|-----------------------------------|
|-----------------------------------|
|-0-0000-1-0-0000-00-00-00-1-0-0000-|
|-0-0000-1-0-0000-00-00-00-1-0-0000-|
  . ....   . .... .. .. ..   . ....

(Not sure about the harmony part)
|---------------------------|
|---------------------------|
|---------------------------|
|---------------------------|
|-00-00-1hb-00-00-8-7---7-6-|
|-00-00-1hb-00-00-----0-----|
| .. ..     .. ..     .
|
|---------------------------|
|---------------------------|
|---------------------------|
|-----------------7-6---6-5-|
|-00-00-1hb-00-00-----------|
|-00-00-1hb-00-00-----0-----|
  .. ..     .. ..     .

|-----------------------------------|
|-----------------------------------|
|-----------------------------------|
|-----------------------------------|
|-0-0000-1-0-0000-00-00-00-1-0-0000-|
|-0-0000-1-0-0000-00-00-00-1-0-0000-|
  . ....   . .... .. .. ..   . ....

|---------------------------|
|---------------------------|
|---------------------------|
|---------------------------|
|-00-00-1hb-00-00-8-7---7-6-|
|-00-00-1hb-00-00-----0-----|
| .. ..     .. ..     .
|
|---------------------------|
|---------------------------|
|---------------------------|
|-----------------7-6---6-5-|
|-00-00-1hb-00-00-----------|
|-00-00-1hb-00-00-----0-----|
  .. ..     .. ..     .

|-----------------------------------|
|-----------------------------------|
|-----------------------------------|
|-----------------------------------|
|-0-0000-1-0-0000-00-00-00-1-0-0000-|
|-0-0000-1-0-0000-00-00-00-1-0-0000-|
  . ....   . .... .. .. ..   . ....

|---------------------------|
|---------------------------|
|---------------------------|
|---------------------------|
|-00-00-1hb-00-00-8-7---7-6-|
|-00-00-1hb-00-00-----0-----|
| .. ..     .. ..     .
|
|---------------------------|
|---------------------------|
|---------------------------|
|-----------------7-6---6-5-|
|-00-00-1hb-00-00-----------|
|-00-00-1hb-00-00-----0-----|
  .. ..     .. ..     .

|-----------------------------------|
|-----------------------------------|
|-----------------------------------|
|-----------------------------------|
|-0-0000-1-0-0000-00-00-00-1-0-0000-|
|-0-0000-1-0-0000-00-00-00-1-0-0000-|
  . ....   . .... .. .. ..   . ....

|---------------------------|
|---------------------------|
|---------------------------|
|---------------------------|
|-00-00-1hb-00-00-8-7---7-6-|
|-00-00-1hb-00-00-----0-----|
| .. ..     .. ..     .
|
|---------------------------|
|---------------------------|
|---------------------------|
|-----------------7-6---6-5-|
|-00-00-1hb-00-00-----------|
|-00-00-1hb-00-00-----0-----|
  .. ..     .. ..     .

|-----------------------------------|
|-----------------------------------|
|-----------------------------------|
|-----------------------------------|
|-0-0000-1-0-0000-00-00-00-1-0-0000-|
|-0-0000-1-0-0000-00-00-00-1-0-0000-|
  . ....   . .... .. .. ..   . ....

|-----------------------------------|
|-----------------------------------|
|-----------------------------------|
|-----------------------------------|
|-0-0000-1-0-0000-00-00-00-1-0-0000-|
|-0-0000-1-0-0000-00-00-00-1-0-0000-|
  . ....   . .... .. .. ..   . ....

|-----------------------------------|
|-----------------------------------|
|-----------------------------------|
|-----------------------------------|
|-0-0000-1-0-0000-00-00-00-1-0-0000-|
|-0-0000-1-0-0000-00-00-00-1-0-0000-|
  . ....   . .... .. .. ..   . ....

|-----------------------------------|
|-----------------------------------|
|-----------------------------------|
|-----------------------------------|
|-0-0000-1-0-0000-00-00-00-1-0-0000-|
|-0-0000-1-0-0000-00-00-00-1-0-0000-|
  . ....   . .... .. .. ..   . ....

|-----------------------------------|
|-----------------------------------|
|-----------------------------------|
|-----------------------------------|
|-0-0000-1-0-0000-00-00-00-1-0-0000-|
|-0-0000-1-0-0000-00-00-00-1-0-0000-|
| . ....   . .... .. .. ..   . ....
|
|Let ring
|-----------------------------------|
|---------------9-------------------|
|-10-7---9-10-------9-10---9-10---9-|
|------0------0---0------0------0---|
|-----------------------------------|
|-----------------------------------|

|-----------------------------------|
|-----------------------------------|
|-----------------------------------|
|-----------------------------------|
|-0-0000-1-0-0000-00-00-00-1-0-0000-|
|-0-0000-1-0-0000-00-00-00-1-0-0000-|
| . ....   . .... .. .. ..   . ....
|
|-----------------------------------|
|---------------9-------------------|
|-10-7---9-10-------9-10---9-10---9-|
|------0------0---0------0------0---|
|-----------------------------------|
|-----------------------------------|

|-----------------------------------|
|-----------------------------------|
|-----------------------------------|
|-----------------------------------|
|-0-0000-1-0-0000-00-00-00-1-0-0000-|
|-0-0000-1-0-0000-00-00-00-1-0-0000-|
| . ....   . .... .. .. ..   . ....
|
|-----------------------------------|
|---------------9-------------------|
|-10-7---9-10-------9-10---9-10---9-|
|------0------0---0------0------0---|
|-----------------------------------|
|-----------------------------------|

|-----------------------------------|
|-----------------------------------|
|-----------------------------------|
|-----------------------------------|
|-0-0000-1-0-0000-00-00-00-1-0-0000-|
|-0-0000-1-0-0000-00-00-00-1-0-0000-|
| . ....   . .... .. .. ..   . ....
|
|-----------------------------------|
|-----------------------------------|
|-9-7---9-10---12---7-9---9-10-7-9--|
|-----0------0----0-----0-----------|
|-----------------------------------|
|-----------------------------------|

|-----------------------------------|
|-----------------------------------|
|-----------------------------------|
|-----------------------------------|
|-0-0000-1-0-0000-00-00-00-1-0-0000-|
|-0-0000-1-0-0000-00-00-00-1-0-0000-|
| . ....   . .... .. .. ..   . ....
|
|-----------------------------------|
|-----------------------------------|
|-----------------------------------|
|-----------------------------------|
|-----------------------------------|
|-----------------------------------|

|-----------------------------------|
|-----------------------------------|
|-----------------------------------|
|-----------------------------------|
|-0-0000-1-0-0000-00-00-00-1-0-0000-|
|-0-0000-1-0-0000-00-00-00-1-0-0000-|
| . ....   . .... .. .. ..   . ....
|
|-----------------------------------|
|-----------------------------------|
|-9-7---9-10---12---7-9---9-10-7-9--|
|-----0------0----0-----0-----------|
|-----------------------------------|
|-----------------------------------|

|-----------------------------------|
|-----------------------------------|
|-----------------------------------|
|-----------------------------------|
|-0-0000-1-0-0000-00-00-00-1-0-0000-|
|-0-0000-1-0-0000-00-00-00-1-0-0000-|
| . ....   . .... .. .. ..   . ....
|
|-----------------------------------|
|-----------------------------------|
|-----------------------------------|
|-----------------------------------|
|-----------------------------------|
|-----------------------------------|

|-----------------------------------||
|-----------------------------------||
|-----------------------------------||
|-----------------------------------||
|-0-0000-1-0-0000-00-00-00-1-0-0000-||
|-0-0000-1-0-0000-00-00-00-1-0-0000-||
| . ....   . .... .. .. ..   . ....
|
|-----------------------------------||
|---------------9-----------------9-||
|-10-7---9-10-------10-7---9-10-----||
|------0------0---0------0------0---||
|-----------------------------------||
|-----------------------------------||
Comments