Lamb Of God - Remorse Is For The Dead Chords & Tabs

 

Remorse Is For The Dead Chords & Tabs

Lamb Of God Chords & Tabs

Version: 2 Type: Tab 0 ratings
1 star 2 stars 3 stars 4 stars 5 stars
comments

Remorse Is For The Dead Tab

   
-------------------------------------------------------------------------------
			Remorse Is For The Dead- Lamb Of God
-------------------------------------------------------------------------------
Tabbed by:Doug
Email:Rage16@earthlink.net

e|---------------------------------------------------------------------------|
B|---------------------------------------------------------------------------|
G|-------2---2-------2---2-------3---3-------0---0-------2---2-------0---0---|
D|-----0---0---0---0---0---0---0---0---0---0---0---0---0---0---0---0---0---0-|
A|---0-----------0-----------0-----------0-----------0-----------0-----------|
E|---------------------------------------------------------------------------|
[ Tab from: http://www.guitartabs.cc/tabs/l/lamb_of_god/remorse_is_for_the_dead_tab_ver_2.html ]
e|---------------------------------------------------------------------------|
B|---------------------------------------------------------------------------|
G|------2----2s3------2-0---2x-repeat-------2-----2-----3-----0-----2--------|
D|----0---0------0------------------------0-----0-----0-----0-----0----------|
A|--0--------------0--------------------0-----0-----0-----0-----0------------|
E|---------------------------------------------------------------------------|

e|---------------------------------------------------------------------------|
B|---------------------------------------------------------------------------|
G|----------------------2-0--4x-repeat--2-0-2-0-2-0-2--0---------------------|
D|----0-3-----0-5-----0------------------------------------------------------|
A|--0-------0-------0--------------------------------------------------------|
E|---------------------------------------------------------------------------|

| /  slide up
| \  slide down
| h  hammer-on
| p  pull-off
| ~  vibrato
| +  harmonic
| x  Mute note
===============================================================================
Comments