Lamb Of God - Remorse Is For The Dead Chords & Tabs

 

Remorse Is For The Dead Chords & Tabs

Lamb Of God Chords & Tabs

Version: 1 Type: Tab 0 ratings
1 star 2 stars 3 stars 4 stars 5 stars
comments

Remorse Is For The Dead Tab

Remorse is for the Dead, by Lamb of God

i did my best to figure it out by ear... and this is what i got...

tabbed out by:LeViaThaN

Guitar 1
e|---------------------------------------------| 
b|---------------------------------------------|
g|---------------------------------------------|
d|---------------------------------------------|
a|---------------------------------------------|
d|----0----7----8----5----7----0h3----5----1---|

then
[ Tab from: http://www.guitartabs.cc/tabs/l/lamb_of_god/remorse_is_for_the_dead_tab.html ]
e|----------------------------------------------------------------------| 
b|----------------------------------------------------------------------|
g|----------------------------------------------------------------------|
d|--------7------7------8------5------7--------3------5------3p0-2------|
a|------5------5------5------5------5--------3------5------1------------|
d|----0------7------8------5------7------0h3------5------1--------------|

Guitar 2
e|--------------------------------------------------------------------------------------| 
b|--------------------------------------------------------------------------------------|
g|--------------------------------------------------------------------------------------|
d|----7--7------7--7------8--8------7--5------7--7------5--5------7--7h8-----0---3p0-2--|
a|---0--0--0---0--0--0---0--0--0---0--0--0---0--0--0---0--0--0---0--0--0---0------------|
d|--------------------------------------------------------------------------------------|
Comments