Lamb Of God - Now Youve Got Something To Die For Chords & Tabs

 

Now Youve Got Something To Die For Chords & Tabs

Lamb Of God Chords & Tabs

Version: 2 Type: Tab 0 ratings
1 star 2 stars 3 stars 4 stars 5 stars
comments

Now Youve Got Something To Die For Tab

Now You've Got Something To Die For
tabbed by sizlchest
tim_mena@yahoo.com

Scroll down for Mark's part


Willie Adler
                                                          7x
E||---------------------------|---------------------------||
B||---------------------------|---------------------------||
G||*--------------------------|--------------------------*||
D||*--------------------------|--------------------------*||
A||---------------------------|---------------------------||
D||---2--3--1--2--3--0--2--3--|--2--3--1--2--3--0--6--5---||



---------------------------|--------------------------|
---------------------------|--------------------------|
*--------------------------|--------------------------|
*--------------------------|--------------------------|
---2--1--2--3--2--3--1--3--|--2--1--2--3--2--0--2--3--|
---2--1--2--3-----3-----3--|--2--1--2--3--2--0--2--3--|


                                                       3x
--------------------------|----------------------------||-------------------|
--------------------------|----------------------------||-------------------|
--------------------------|---------------------------*||-------------------|
--------------------------|---------------------------*||-------------------|
--2--1--5--3--4--4--5--3--|--2--1--2--3---------2--1---||--0----------------|
--2--1-----3-----4--5--3--|--2--1--2--3--4-5-4--2--1---||--0----------------|



------------------|------------------|-----------------------|
------------------|------------------|-----------------------|
------------------|------------------|-----------------------|
------------------|------------------|-----------------------|
------------------|------------------|-----------------------|
------------------|------------------|----------13--1--0--1--|



-------------------|------------------|---------------------------|
-------------------|------------------|---------------------------|
-------------------|------------------|---------------------------|
-------------------|------------------|---------------------------|
--0----------------|------------------|---------------------------|
--0----------------|------------------|--1--0--1--3--4-5-4--1--0--|



--------------------------|--------------------------|
--------------------------|--------------------------|
--------------------------|--------------------------|
--------------------------|--------------------------|
--1--0--------------7--6--|--------------------------|
--------5--4--0--1--7--6--|--0--0--0--0--0--0--0--0--|



------------------------------|------------------------------|
------------------------------|------------------------------|
------------------------------|------------------------------|
------------------------------|------------------------------|
------------------------------|------------------------------|
--11--15--14--10--0--0--0--0--|--13--17--16--13--0--0--0--0--|



---------------------------|--------------------------|
---------------------------|--------------------------|
---------------------------|--------------------------|
---------------------------|--------------------------|
---------------------------|--------------------------|
--0--0--0--0--13--1--0--1--|--0--0--0--0--0--0--0--0--|



------------------------------|--------------------------|
------------------------------|--------------------------|
------------------------------|--------------------------|
------------------------------|--------------------------|
------------------------------|--------------------------|
--11--15--14--10--0--0--1--0--|--1--4--3--0--5--4--0--8--|



----------------------------|--------------------------|
----------------------------|--------------------------|
----------------------------|--------------------------|
----------------------------|--------------------------|
----------------------------|--------------------------|
--0--4--3--0--3--7--12--13--|--0--0--0--0--0--0--0--0--|



------------------------------|------------------------------|
------------------------------|------------------------------|
------------------------------|------------------------------|
------------------------------|------------------------------|
------------------------------|------------------------------|
--11--15--14--10--0--0--0--0--|--13--17--16--13--0--0--0--0--|



---------------------------|--------------------------|
---------------------------|--------------------------|
---------------------------|--------------------------|
---------------------------|--------------------------|
---------------------------|--------------------------|
--0--0--0--0--13--1--0--1--|--0--0--0--0--0--0--0--0--|



------------------------------|---------------------------|
------------------------------|---------------------------|
------------------------------|---------------------------|
------------------------------|---------------------------|
------------------------------|---------------------------|
--11--15--14--10--0--0--0--0--|--1--0--1--3--4-5-4--1--0--|



--------------------------||---------------------------|
--------------------------||---------------------------|
--------------------------||*--------------------------|
--------------------------||*--------------------------|
--1--0--------------7--6--||---------------------------|
--------5--4--0--1--7--6--||---2--3--1--2--3--0--2--3--|


                           3x
---------------------------||--------------------------|
---------------------------||--------------------------|
--------------------------*||--------------------------|
--------------------------*||--------------------------|
---------------------------||--------------------------|
--2--3--1--2--3--0--6--5---||--0--0--0--0--0--0--0--0--|



------------------------------|------------------------------|
------------------------------|------------------------------|
------------------------------|------------------------------|
------------------------------|------------------------------|
------------------------------|------------------------------|
--11--15--14--10--0--0--0--0--|--13--17--16--13--0--0--0--0--|



---------------------------|--------------------------|
---------------------------|--------------------------|
---------------------------|--------------------------|
---------------------------|--------------------------|
---------------------------|--------------------------|
--0--0--0--0--13--1--0--1--|--0--0--0--0--0--0--0--0--|



------------------------------|---------------------------|
------------------------------|---------------------------|
------------------------------|---------------------------|
------------------------------|---------------------------|
------------------------------|---------------------------|
--11--15--14--10--0--0--0--0--|--1--0--1--3--4-5-4--1--0--|



--------------------------|--------------------------|
--------------------------|--------------------------|
--------------------------|--------------------------|
--------------------------|--------------------------|
--1--0--------------7--6--|--------------------------|
--------5--4--0--1--7--6--|--0--0--0--0--0--0--0--0--|



------------------------------|------------------------------|
------------------------------|------------------------------|
------------------------------|------------------------------|
------------------------------|------------------------------|
------------------------------|------------------------------|
--11--15--14--10--0--0--0--0--|--13--17--16--13--0--0--0--0--|



---------------------------|--------------------------|
---------------------------|--------------------------|
---------------------------|--------------------------|
---------------------------|--------------------------|
---------------------------|--------------------------|
--0--0--0--0--13--1--0--1--|--0--0--0--0--0--0--0--0--|



------------------------------|--------------------------|
------------------------------|--------------------------|
------------------------------|--------------------------|
------------------------------|--------------------------|
------------------------------|--------------------------|
--11--15--14--10--0--0--1--0--|--1--4--3--0--5--4--0--8--|



----------------------------||----------------------------|
----------------------------||----------------------------|
----------------------------||*---------------------------|
----------------------------||*---------------------------|
----------------------------||----------------------------|
--0--4--3--0--3--7--12--13--||---2-2-2--2-2-2--2-2-2------|



---------------------------|---------------------------|
---------------------------|---------------------------|
---------------------------|---------------------------|
---------------------------|---------------------------|
---------------------------|---------------------------|
--2-2-2--2-2-2--2-2-2------|--2-2-2--2-2-2--2-2-2------|



------------------------||--------------------------------|
------------------------||--------------------------------|
-----------------------*||*-------------------------------|
-----------------------*||*-------------------------------|
------------------------||-----------------10--9----------|
--2-2-2--2-2-2--3-3-3---||---0-0-0--0-0-0---------13--12--|



--------------------------------|-------------------------------|
--------------------------------|-------------------------------|
--------------------------------|-------------------------------|
--------------------------------|-------------------------------|
----------------13--12----------|----------------10--9----------|
--0-0-0--0-0-0----------15--14--|--0-0-0--0-0-0---------13--12--|



-------------------------||------------------------------|
-------------------------||------------------------------|
------------------------*||*-----------------------------|
------------------------*||*-----------------------------|
--13--12-----------------||---------------10--9----------|
----------15--14--0--1---||---0--0--0--0---------13--12--|



------------------------------|-----------------------------|
------------------------------|-----------------------------|
------------------------------|-----------------------------|
------------------------------|-----------------------------|
--------------13--12----------|--------------10--9----------|
--0--0--0--0----------15--14--|--0--0--0--0---------13--12--|



-------------------------------||------------------------------|
-------------------------------||------------------------------|
------------------------------*||*-----------------------------|
------------------------------*||*-----------------------------|
--13--12-----------------------||---------------10--9----------|
----------15--14--0--1--4--3---||---0--0--0--0---------13--12--|



------------------------------|-----------------------------|
------------------------------|-----------------------------|
------------------------------|-----------------------------|
------------------------------|-----------------------------|
--------------13--12----------|--------------10--9----------|
--0--0--0--0----------15--14--|--0--0--0--0---------13--12--|



-------------------------------||------------------|---------------------------|
-------------------------------||------------------|---------------------------|
------------------------------*||------------------|---------------------------|
------------------------------*||------------------|---------------------------|
--13--12-----------------------||------------------|--0-0-0--0--0----0--0-0-0--|
----------15--14--0--1--4--3---||------------------|--0-0-0--0--0----0--0-0-0--|



--------------------------|---------------------------|------------------------|
--------------------------|---------------------------|------------------------|
--------------------------|---------------------------|------------------------|
--------------------------|---------------------------|------------------------|
--1--0--3--0--------------|--0-0-0--0--0----0--0-0-0--|------------------------|
--1--0--3--0--3--4--3--1--|--0-0-0--0--0----0--0-0-0--|--12b-----12b-----12/---|



|----------------------------|--------------------------|
|----------------------------|--------------------------|
|*---------------------------|--------------------------|
|*---------------------------|--------------------------|
|---0-0-0--0--0--0--0--0--0--|--1--0--3--0--------------|
|---0-0-0--0--0--0--0--0--0--|--1--0--3--0--3--4--3--1--|


                                                     2x
---------------------------|-------------------------||
---------------------------|-------------------------||
---------------------------|------------------------*||
---------------------------|------------------------*||
--0-0-0--0--0----0--0-0-0--|-------------------------||
--0-0-0--0--0----0--0-0-0--|--12b-----12b-----12/----||



---------------------------|--------------------------|
---------------------------|--------------------------|
*--------------------------|--------------------------|
*--------------------------|--------------------------|
---1--0--0--0--0--0--0--0--|--1--0--3--0--3--4--3--1--|
---1--0--0--0--0--0--0--0--|--1--0--3--0--3--4--3--1--|


                                                    2x
--------------------------|-------------------------||
--------------------------|-------------------------||
--------------------------|------------------------*||
--------------------------|------------------------*||
--1--0--0--0--0--0--0--0--|-------------------------||
--1--0--0--0--0--0--0--0--|--12b-----12b-----12/----||



--------------------------|--------------------------|----|----|
--------------------------|--------------------------|----|----|
--------------------------|--------------------------|----|----|
--------------------------|--------------------------|----|----|
--1--0--0--0--0--0--0--0--|--1--0--3--0--3--4--3--1--|----|----|
--1--0--0--0--0--0--0--0--|--1--0--3--0--3--4--3--1--|----|----|



|----------------------------|--------------------------|
|----------------------------|--------------------------|
|*---------------------------|--------------------------|
|*---------------------------|--------------------------|
|---0-0-0--0--0--0--0--0--0--|--1--0--3--0--3--4--3--1--|
|---0-0-0--0--0--0--0--0--0--|--1--0--3--0--3--4--3--1--|


                                                  2x
---------------------------|----------------------||---------------------------|
---------------------------|----------------------||---------------------------|
---------------------------|---------------------*||---------------------------|
---------------------------|---------------------*||---------------------------|
--0-0-0--0--0--0--0--0--0--|----------------------||--0-0-0--0--0--0--0--0--0--|
--0-0-0--0--0--0--0--0--0--|--1b-----1b-----1b----||--0-0-0--0--0--0--0--0--0--|



--------------------------||
--------------------------||
--------------------------||
--------------------------||
--1--0--3--0--3--4--3--1--||
--1--0--3--0--3--4--3--1--||


                      Now You've Got Something To Die For

[ Tab from: http://www.guitartabs.cc/tabs/l/lamb_of_god/now_youve_got_something_to_die_for_tab_ver_2.html ]
Mark Morton
                                                          7x
E||---------------------------|---------------------------||
B||---------------------------|---------------------------||
G||*--------------------------|--------------------------*||
D||*--------------------------|--------------------------*||
A||---------------------------|---------------------------||
D||---2--3--1--2--3--0--2--3--|--2--3--1--2--3--0--6--5---||



---------------------------|--------------------------|
---------------------------|--------------------------|
*--------------------------|--------------------------|
*--------------------------|--------------------------|
---2--1--2--3--2--3--1--3--|--2--1--2--3--2--0--2--3--|
---2--1--2--3-----3-----3--|--2--1--2--3--2--0--2--3--|


                                                       3x
--------------------------|----------------------------||
--------------------------|----------------------------||
--------------------------|---------------------------*||
--------------------------|---------------------------*||
--2--1--5--3--4--4--5--3--|--2--1--2--3---------2--1---||
--2--1-----3-----4--5--3--|--2--1--2--3--4-5-4--2--1---||



--------------------------|------------------------------|
--------------------------|------------------------------|
--------------------------|------------------------------|
--------------------------|------------------------------|
--------------------------|------------------------------|
--0--0--0--0--0--0--0--0--|--11--15--14--10--0--0--0--0--|



------------------------------|---------------------------|
------------------------------|---------------------------|
------------------------------|---------------------------|
------------------------------|---------------------------|
------------------------------|---------------------------|
--13--17--16--13--0--0--0--0--|--0--0--0--0--13--1--0--1--|



--------------------------|------------------------------|
--------------------------|------------------------------|
--------------------------|------------------------------|
--------------------------|------------------------------|
--------------------------|------------------------------|
--0--0--0--0--0--0--0--0--|--11--15--14--10--0--0--0--0--|



---------------------------|--------------------------|
---------------------------|--------------------------|
---------------------------|--------------------------|
---------------------------|--------------------------|
---------------------------|--1--0--------------7--6--|
--1--0--1--3--4-5-4--1--0--|--------5--4--0--1--7--6--|



--------------------------|------------------------------|
--------------------------|------------------------------|
--------------------------|------------------------------|
--------------------------|------------------------------|
--------------------------|------------------------------|
--0--0--0--0--0--0--0--0--|--11--15--14--10--0--0--0--0--|



------------------------------|---------------------------|
------------------------------|---------------------------|
------------------------------|---------------------------|
------------------------------|---------------------------|
------------------------------|---------------------------|
--13--17--16--13--0--0--0--0--|--0--0--0--0--13--1--0--1--|



--------------------------|------------------------------|
--------------------------|------------------------------|
--------------------------|------------------------------|
--------------------------|------------------------------|
--------------------------|------------------------------|
--0--0--0--0--0--0--0--0--|--11--15--14--10--0--0--1--0--|



--------------------------|----------------------------|
--------------------------|----------------------------|
--------------------------|----------------------------|
--------------------------|----------------------------|
--------------------------|----------------------------|
--1--4--3--0--5--4--0--8--|--0--4--3--0--3--7--12--13--|



--------------------------|------------------------------|
--------------------------|------------------------------|
--------------------------|------------------------------|
--------------------------|------------------------------|
--------------------------|------------------------------|
--0--0--0--0--0--0--0--0--|--11--15--14--10--0--0--0--0--|



------------------------------|---------------------------|
------------------------------|---------------------------|
------------------------------|---------------------------|
------------------------------|---------------------------|
------------------------------|---------------------------|
--13--17--16--13--0--0--0--0--|--0--0--0--0--13--1--0--1--|



--------------------------|------------------------------|
--------------------------|------------------------------|
--------------------------|------------------------------|
--------------------------|------------------------------|
--------------------------|------------------------------|
--0--0--0--0--0--0--0--0--|--11--15--14--10--0--0--0--0--|



---------------------------|--------------------------|
---------------------------|--------------------------|
---------------------------|--------------------------|
---------------------------|--------------------------|
---------------------------|--1--0--------------7--6--|
--1--0--1--3--4-5-4--1--0--|--------5--4--0--1--7--6--|


                                                        3x
|---------------------------|---------------------------||
|---------------------------|---------------------------||
|*--------------------------|--------------------------*||
|*--------------------------|--------------------------*||
|---------------------------|---------------------------||
|---2--3--1--2--3--0--2--3--|--2--3--1--2--3--0--6--5---||



--------------------------|------------------------------|
--------------------------|------------------------------|
--------------------------|------------------------------|
--------------------------|------------------------------|
--------------------------|------------------------------|
--0--0--0--0--0--0--0--0--|--11--15--14--10--0--0--0--0--|



------------------------------|---------------------------|
------------------------------|---------------------------|
------------------------------|---------------------------|
------------------------------|---------------------------|
------------------------------|---------------------------|
--13--17--16--13--0--0--0--0--|--0--0--0--0--13--1--0--1--|



--------------------------|------------------------------|
--------------------------|------------------------------|
--------------------------|------------------------------|
--------------------------|------------------------------|
--------------------------|------------------------------|
--0--0--0--0--0--0--0--0--|--11--15--14--10--0--0--0--0--|



---------------------------|--------------------------|
---------------------------|--------------------------|
---------------------------|--------------------------|
---------------------------|--------------------------|
---------------------------|--1--0--------------7--6--|
--1--0--1--3--4-5-4--1--0--|--------5--4--0--1--7--6--|



--------------------------|------------------------------|
--------------------------|------------------------------|
--------------------------|------------------------------|
--------------------------|------------------------------|
--------------------------|------------------------------|
--0--0--0--0--0--0--0--0--|--11--15--14--10--0--0--0--0--|



------------------------------|---------------------------|
------------------------------|---------------------------|
------------------------------|---------------------------|
------------------------------|---------------------------|
------------------------------|---------------------------|
--13--17--16--13--0--0--0--0--|--0--0--0--0--13--1--0--1--|



--------------------------|------------------------------|
--------------------------|------------------------------|
--------------------------|------------------------------|
--------------------------|------------------------------|
--------------------------|------------------------------|
--0--0--0--0--0--0--0--0--|--11--15--14--10--0--0--1--0--|



--------------------------|----------------------------|
--------------------------|----------------------------|
--------------------------|----------------------------|
--------------------------|----------------------------|
--------------------------|----------------------------|
--1--4--3--0--5--4--0--8--|--0--4--3--0--3--7--12--13--|



|----------------------------|---------------------------|
|----------------------------|---------------------------|
|*---------------------------|---------------------------|
|*---------------------------|---------------------------|
|----------------------------|---------------------------|
|---2-2-2--2-2-2--2-2-2------|--2-2-2--2-2-2--2-2-2------|



---------------------------|------------------------||
---------------------------|------------------------||
---------------------------|-----------------------*||
---------------------------|-----------------------*||
---------------------------|------------------------||
--2-2-2--2-2-2--2-2-2------|--2-2-2--2-2-2--3-3-3---||



--------------------------------|--------------------------------|
--------------------------------|--------------------------------|
*-------------------------------|--------------------------------|
*-------------------------------|--------------------------------|
-----------------10--9----------|----------------13--12----------|
---0-0-0--0-0-0---------13--12--|--0-0-0--0-0-0----------15--14--|



-------------------------------|-----------------------||
-------------------------------|-----------------------||
-------------------------------|----------------------*||
-------------------------------|----------------------*||
----------------10--9----------|-----------------------||
--0-0-0--0-0-0---------13--12--|--0-0-0--0-0-0--0--1---||



------------------------------|------------------------------|
------------------------------|------------------------------|
*-----------------------------|------------------------------|
*-----------------------------|------------------------------|
---------------10--9----------|--------------13--12----------|
---0--0--0--0---------13--12--|--0--0--0--0----------15--14--|



-----------------------------|-------------------------------||
-----------------------------|-------------------------------||
-----------------------------|------------------------------*||
-----------------------------|------------------------------*||
--------------10--9----------|--13--12-----------------------||
--0--0--0--0---------13--12--|----------15--14--0--1--4--3---||



------------------------------|------------------------------|
------------------------------|------------------------------|
*-----------------------------|------------------------------|
*-----------------------------|--------------12--11----------|
---------------13--12--10--9--|----------------------13--12--|
---0--0--0--0-----------------|--0--0--0--0------------------|



-----------------------------|-------------------------------||
-----------------------------|-------------------------------||
-----------------------------|------------------------------*||
-----------------------------|--12--11----------------------*||
--------------13--12--10--9--|----------13--12---------------||
--0--0--0--0-----------------|------------------0--1--4--3---||



------------------------|---------------------------|--------------------------|
------------------------|---------------------------|--------------------------|
------------------------|---------------------------|--------------------------|
------------------------|---------------------------|--------------------------|
--17b-----17b-----17/---|--0-0-0--0--0----0--0-0-0--|--1--0--3--0--------------|
--12b-----12b-----12/---|--0-0-0--0--0----0--0-0-0--|--1--0--3--0--3--4--3--1--|



---------------------------|------------------------|
---------------------------|------------------------|
---------------------------|------------------------|
---------------------------|------------------------|
--0-0-0--0--0----0--0-0-0--|--17b-----17b-----17/---|
--0-0-0--0--0----0--0-0-0--|------------------------|



|----------------------------|--------------------------|
|----------------------------|--------------------------|
|*---------------------------|--------------------------|
|*---------------------------|--------------------------|
|---0-0-0--0--0--0--0--0--0--|--1--0--3--0--------------|
|---0-0-0--0--0--0--0--0--0--|--1--0--3--0--3--4--3--1--|


                                                     2x
---------------------------|-------------------------||
---------------------------|-------------------------||
---------------------------|------------------------*||
---------------------------|------------------------*||
--0-0-0--0--0----0--0-0-0--|--17b-----17b-----17/----||
--0-0-0--0--0----0--0-0-0--|-------------------------||



---------------------------|--------------------------|
---------------------------|--------------------------|
*--------------------------|--------------------------|
*--------------------------|--------------------------|
---1--0--0--0--0--0--0--0--|--1--0--3--0--3--4--3--1--|
---1--0--0--0--0--0--0--0--|--1--0--3--0--3--4--3--1--|


                                                    2x
--------------------------|-------------------------||
--------------------------|-------------------------||
--------------------------|------------------------*||
--------------------------|------------------------*||
--1--0--0--0--0--0--0--0--|--17b-----17b-----17/----||
--1--0--0--0--0--0--0--0--|-------------------------||



--------------------------|--------------------------|------|------|
--------------------------|--------------------------|------|------|
--------------------------|--------------------------|------|------|
--------------------------|--------------------------|------|------|
--1--0--0--0--0--0--0--0--|--1--0--3--0--3--4--3--1--|------|------|
--1--0--0--0--0--0--0--0--|--1--0--3--0--3--4--3--1--|------|------|



|----------------------------|--------------------------|
|----------------------------|--------------------------|
|*---------------------------|--------------------------|
|*---------------------------|--------------------------|
|---0-0-0--0--0--0--0--0--0--|--1--0--3--0--3--4--3--1--|
|---0-0-0--0--0--0--0--0--0--|--1--0--3--0--3--4--3--1--|


                                                  2x
---------------------------|----------------------||---------------------------|
---------------------------|----------------------||---------------------------|
---------------------------|---------------------*||---------------------------|
---------------------------|---------------------*||---------------------------|
--0-0-0--0--0--0--0--0--0--|----------------------||--0-0-0--0--0--0--0--0--0--|
--0-0-0--0--0--0--0--0--0--|--1b-----1b-----1b----||--0-0-0--0--0--0--0--0--0--|



--------------------------||
--------------------------||
--------------------------||
--------------------------||
--1--0--3--0--3--4--3--1--||
--1--0--3--0--3--4--3--1--||
Comments