Lamb Of God - Laid To Rest Chords & Tabs

 

Laid To Rest Chords & Tabs

Lamb Of God Chords & Tabs

Version: 6 Type: Tab 0 ratings
1 star 2 stars 3 stars 4 stars 5 stars
comments

Laid To Rest Tab

pretty self explanitory,i didnt add any palm mutes or such play it the way you hear
it and this 100% i got this from a couple guitar world issues 

Laid To Rest-Lamb of God

Intro Part1
E|-------------------------------------------------|
B|-------------------------------------------------|
G|-------------------------------------------------|
D|-------------------------------------------------|
A|------6-5-3-------8-5-6--------------------------|
D|0-0-0-------0-0-0-------0-0-0-8-5\4/7-8-7-10-7-8-|
 |
E|-------------------------------------------------|
B|-------------------------------------------------|
G|-------------------------------------------------|
D|-------------------------------------------------|
A|0------------------------------------------------|
D|0------------------------------------------------|

E|----------------------------------------------------|
B|----------------------------------------------------|
G|----------------------------------------------------|
D|------4h5p4---------8-7-5-4h5p4---4-----------------|
A|------------5-------------------6---5-6-3-5---3-----|
D|0-0-0---------0-0-0-------------------------6---5-6-|
 |
E|----------------------------------------------------|
B|----------------------------------------------------|
G|----------------------------------------------------|
D|----------------------------------4-----------------|
A|0-------------------------------6---5-6-3-5---3-----|
D|0-------------------------------------------6---5-6-|

Intro Part2              1,2,3                  4
E|----------------------|----------------------|--------------------|
B|----------------------|----------------------|--------------------|
G|----------------------|----------------------|--------------------|
D|----------------------|----------------------|--------------------|
A|2-2-2-2----2-2-2-2----|-2-2----2-2-----------|-2-2----2-----------|
D|2-2-2-2-3--2-2-2-2-3--|-2-2----2-2-3-2-5-4-3-|-2-2----2-3-2-3-2-1-|
 |       ph         ph 
E|----------------------|----------------------|--------------------|
B|----------------------|----------------------|--------------------|
G|----------------------|----------------------|--------------------|
D|----------------------|----------------------|--------------------|
A|----------------------|----------------------|--------------------|
D|2-2-2-2-3--2-2-2-2-3--|-2-2----2-2-3-2-5-4-3-|-2-2----2-3-2-3-2-1-|
         ph        ph 

Verse1 2x
E|--|-------------------------------------|
B|--|-------------------13-------11-------|
G|--|-15/14----12h14-------15-------14----|
D|12|-------12-------12-------12-------12-|
A|--|-------------------------------------|
D|--|-------------------------------------|
 |
E|--|-------------------------------------|
B|--|-------------------------------------|
G|--|-------------------------------------|
D|--|-------------------------------------|
A|--|-------------------------------------|
D|--|--0--0--0--0--0-----0--0--0--0--0--0-|

E|------------------------------------|
B|------------------13-------11-------|
G|15/14----12h14-------15-------14----|
D|------12-------12-------12-------12-|
A|------------------------------------|
D|------------------------------------|
 |
E|------------------------------------|
B|------------------------------------|
G|------------------------------------|
D|------------------------------------|
A|------------------------------------|
D|----0--0--0-----0-----0--0--0--0----|

Interlude1 Gtr1&2                   1           2
E|----------------------------------|-----------|-----------|
B|----------------------------------|-----------|-----------|
G|----------------------------------|-----------|-----------|
D|----------------------------------|-----------|-----------|
A|2-2-2-2---2-2-2-2------2-2----2-2-|-----------|-----------|
D|2-2-2-2-3-2-2-2-2-3----2-2----2-2-|-3-2-5-4-3-|-3-2-3-2-1-|
         ph        ph

Verse 2&3
E|-------------------------------------------------|
B|-------------------------------------------------|
G|-------------------------------------------------|
D|-------------------------------------------------|
A|------6-5-3-------8-5-6--------------------------|
D|0-0-0-------0-0-0-------0-0-0-8-5\4/7-8-7-10-7-8-|

E|----------------------------------------------------|
B|----------------------------------------------------|
G|----------------------------------------------------|
D|------4h5p4---------8-7-5-4h5p4---4-----------------|
A|------------5-------------------6---5-6-3-5---3-----|
D|0-0-0---------0-0-0-------------------------6---5-6-|

E|-------------------------------------------------|
B|-------------------------------------------------|
G|7-----------------------5----------12------------|
D|X-----------------------X----------X-------------|
A|5-----------------------3----------10------------|
D|-------------------------------------------------|
 |
E|-------------------------------------------------|
B|-------------------------------------------------|
G|-------------------------------------------------|
D|-------------------------------------------------|
A|------6-5-3-------8-5-6--------------------------|
D|0-0-0-------0-0-0-------0-0-0-8-5\4/7-8-7-10-7-8-|

E|----------------------------------------------------|
B|----------------------------------------------------|
G|11------------------------5-------------3-----------|
D|X-------------------------X-------------X-----------|
A|9-------------------------3-------------1-----------|
D|----------------------------------------------------|
 |
E|----------------------------------------------------|
B|----------------------------------------------------|
G|----------------------------------------------------|
D|------4h5p4---------8-7-5-4h5p4---4-----------------|
A|------------5-------------------6---5-6-3-5---3-----|
D|0-0-0---------0-0-0-------------------------6---5-6-|
[ Tab from: http://www.guitartabs.cc/tabs/l/lamb_of_god/laid_to_rest_tab_ver_6.html ]
E|-------------------------------------------------|
B|-------------------------------------------------|
G|-------------------------------------------------|
D|7-----------------------5-----------8------------|
A|X-----------------------X-----------X------------|
D|7-----------------------5-----------8------------|
 |
E|-------------------------------------------------|
B|-------------------------------------------------|
G|-------------------------------------------------|
D|-------------------------------------------------|
A|------6-5-3-------8-5-6--------------------------|
D|0-0-0-------0-0-0-------0-0-0-8-5\4/7-8-7-10-7-8-|

E|----------------------------------------------------|
B|----------------------------------------------------|
G|----------------------------------------------------|
D|7-------------------------3-------------1-----------|
A|X-------------------------X-------------X-----------|
D|7-------------------------3-------------1-----------|
|
E|----------------------------------------------------|
B|----------------------------------------------------|
G|----------------------------------------------------|
D|------4h5p4---------8-7-5-4h5p4---4-----------------|
A|------------5-------------------6---5-6-3-5---3-----|
D|0-0-0---------0-0-0-------------------------6---5-6-|

Chorus Gtr1&2
 2x
E|------------------------------------------------|
B|------------------------------------------------|
G|------------------------------------------------|
D|------------------------------------------------|
A|------------------------------------------------|
D|0---0-6-3-5-0---0-1-3-1-0---0-6-3-5-0-1-3-5---3-|
 2x                                            ph
E|------------------------------------------------|
B|------------------------------------------------|
G|------------------------------------------------|
D|------------------------------------------------|
A|------------------------------------------------|
D|0-0-0-6-3-5-0-0-0-1-3-1-0-0-0-6-3-1-0-1-3-5---3-|
                                               ph 
 
Interlude2              1                     2
E|----------------------|---------------------|-----------------|
B|----------------------|---------------------|-----------------|
G|----------------------|---------------------|-----------------|
D|----------------------|---------------------|-----------------|
A|----------------------|---------------------|-----------------|
D|1-1-1-1-1---1-1-1-1-1-|-1-1-----1---1-1-1-1-|-1-1-----1---1-1-|

Interlude3 3  
E|--------------------------------------------|
B|--------------------------------------------|
G|--------------------------------------------|
D|--------------------------------------------|
A|--------------------------------------------|
D|0-0-0-0-0---0-0-0-0-0---0-0-----0---0-0-0-0-|

Bridge
3x
E|-------------------------------------------------|
B|-------------------------------------------------|
G|-------------------------------------------------|
D|-------------------------------------------------|
A|------6-5-3-------8-5-6--------------------------|
D|0-0-0-------0-0-0-------0-0-0-8-5\4/7-8-7-10-7-8-|
 |
E|-------------------------------------------------|
B|-------------------------------------------------|
G|-------------------------------------------------|
D|-------------------------------------------------|
A|-------------------------------------------------|
D|0-0-0-0-0---0-0-0-0-0---0-0-----0---0-0-0-0------|

E|--------------------------------------------------|
B|--------------------------------------------------|
G|--------------------------------------------------|
D|------------------------4h5p4---4-----------------|
A|------6-5-3-------8-5-6-------6---5-6-3-5---3-----|
D|0-0-0-------0-0-0-------------------------6---5-6-|
 |
E|--------------------------------------------------|
B|--------------------------------------------------|
G|--------------------------------------------------|
D|--------------------------------------------------|
A|------------------------------------------//16\\--|
D|0-0-0-0-0---0-0-0-0-0---0-----------------//16\\--|

Pre-Verse
E|----------------------|
B|----------------------|
G|----------------------|
D|----------------------|
A|----------------------|
D|0-1-3-5---3-0-4-7---4-|
       ph        ph

Verse4 4x
E|------------------------------------------------|
B|------------------------------------------------|
G|------------------------------------------------|
D|------------------------1-------1---1-------1---|
A|5-------5---5-------5---------------------------|
D|--5-0-5---5---5-0-5---5---5-1-5---1---5-1-5---1-|

E|------------------------------------------------|
B|------------------------------------------------|
G|------------------------------------------------|
D|------------------------------------------------|
A|------------------------0-------0---0-------0---|
D|8-7-5-7-8-7-8-7-5-7-8-7---5-1-5---1---5-1-5---1-|

Outro 3x
E|-------------------------------------|
B|-------------------13-------11-------|
G|-15/14----12h14-------15-------14----|
D|-------12-------12-------12-------12-|
A|-------------------------------------|
D|-------------------------------------|
 |
E|-------------------------------------|
B|-------------------------------------|
G|-------------------------------------|
D|-------------------------------------|
A|-------------------------------------|
D|--0--0--0--0--0-----0--0--0--0--0--0-|

E|------------------------------------|
B|------------------13-------11-------|
G|15/14----12h14-------15-------14----|
D|------12-------12-------12-------12-|
A|------------------------------------|
D|------------------------------------|
 |
E|------------------------------------|
B|------------------------------------|
G|------------------------------------|
D|------------------------------------|
A|------------------------------------|
D|----0--0--0-----0-----0--0--0--0----|

Song Structure
Intro Part1
Intro Part2
Verse1 2x
Interlude1
Verse2
Chorus 
Interlude1
Verse3
Chorus 
Interlude2
Interlude3
Bridge
Chorus 
Pre-Verse
Verse4
Outro
Comments