Lamb Of God - Laid To Rest Chords & Tabs

 

Laid To Rest Chords & Tabs

Lamb Of God Chords & Tabs

Version: 4 Type: Tab 0 ratings
1 star 2 stars 3 stars 4 stars 5 stars
comments

Laid To Rest Tab

   
-------------------------------------------------------------------------------
			    Laid to Rest - Lamb of God
-------------------------------------------------------------------------------
Tabbed by: Nick Dyer
Email:  Iwtozz03@aol.com

Tuning:
Guitar 1
e|---------|--------------------------------------------------|
B|---------|--------------------------------------------------|
G|---------|--------------------------------------------------|
D|---------|-------------------3------------------------------|
A|-----10\-|-------6-5-3---------5-6--------------------------|
D|-----10\-|-0-0-0-------0-0-0-------0-0-0-8-5-4/7-8-7-10-7-8-|
 |Guitar 2   x x x       x x x       x x x   (Rhy. Fig. 1)
e|---------|--------------------------------------------------|
B|---------|--------------------------------------------------|
G|---------|--------------------------------------------------|
D|---------|--------------------------------------------------|
A|0000-10\-|-0------------------------------------------------|
D|0000-10\-|-0------------------------------------------------|
  xxxx       x
Guitar 1
e|-------------------------|-------------------------|
B|-------------------------|-------------------------|
G|-------------------------|-------------------------|
D|------4h5p4--------8-7-5-|4h5p4--4-----------------|
A|-----------6-------------|-----6---5-6-3-5---3-----|
D|0-0-0--------0-0-0-------|-----------------6---5-6-|
 |x x x        x x x (This is Rhy. Fig. 1 continued)
 |Guitar 2
e|-------------------------|-------------------------|
B|-------------------------|-------------------------|
G|-------------------------|-------------------------|
D|-------------------------|4h5p4--4-----------------|
A|0------------------------|-----6---5-6-3-5---3-----|
D|0------------------------|-----------------6---5-6-|
                                 x x x x x x x 
Guitar 1
e|---------------------------------------------|
B|---------------------------------------------|
G|---------------------------------------------|
D|---------------------------------------------|
A|2-2-2-2----2-2-2-2--------2-2--2-2-----------|
D|2-2-2-2-3--2-2-2-2-3------2-2--2-2-3-2-5-4-3-|
 |        ^  x x x x ^      x x  x x   
 |Guitar 2                       (Rhy. Fig. 2)  repeat 3 times
e|---------------------------------------------|
B|---------------------------------------------|
G|---------------------------------------------|
D|---------------------------------------------|
A|2-2-2-2-3--2-2-2-2-3------2-2--2-2-----------|
D|2-2-2-2-3--2-2-2-2-3------2-2--2-2-3-2-5-4-3-|
  x x x x ^  2 2 2 2 ^      x x  x x
Guitar 1 and 2  (this is Rhy. Fig. 2 continued)
e|---------------------------------------------|
B|---------------------------------------------|
G|---------------------------------------------|
D|---------------------------------------------|
A|2-2-2-2-3--2-2-2-2-3------2-2--2-2-----------|
D|2-2-2-2-3--2-2-2-2-3------2-2--2-2-3-2-3-2-1-|
  x x x x ^  x x x x ^      x x  x x
Guitar 1 
e|-----------------------------------------------------------|
B|------------------13-------11------------------------------|
G|15\14----12/14-------15-------14------repeat-4-times-------|
D|------12-------12-------12-------12------------------------|
A|-----------------------------------------------------------|
D|-----------------------------------------------------------|
 |
 |Guitar 2                                       (Rhy. Fig. 3)
e|-----------------------------------------------------------|
B|-----------------------------------------------------------|
G|-------------------------------------reapeat-2--times------|
D|-----------------------------------------------------------|
A|-----------------------------------------------------------|
D|0-0-0-0-0---0-0-0-0-0-------0-0---0----0-0-0-0-------------|
  x x x x x   x x x x x       x x   x    x x x x
  
           Last 4 measures of Rhy. Fig. 2

Guitar 1 and 2 do Rhy. Fig. 1(wich is only the first guitar), 2 times

Guitar 1 Plays Rhy. Fig. 1, 2 times
(Guitar 2)
e|------------------------|-------------------------|
B|------------------------|-------------------------|
G|7-----------------------|5-----------12-----------|
D|x-----------------------|x-----------x------------|
A|5-----------------------|3-----------10-----------|
D|------------------------|-------------------------|

e|------------------------|-------------------------|
B|------------------------|-------------------------|
G|11----------------------|5-----------3------------|
D|x-----------------------|x-----------x------------|
A|9-----------------------|3-----------1------------|
D|------------------------|-------------------------|

e|------------------------|-------------------------|
B|------------------------|-------------------------|
G|------------------------|-------------------------|
D|7-----------------------|5-----------8------------|
A|x-----------------------|x-----------x------------|
D|7-----------------------|5-----------8------------|

e|------------------------|-------------------------|
B|------------------------|-------------------------|
G|------------------------|-------------------------|
D|7-----------------------|3-----------1------------|
A|x-----------------------|x-----------x------------|
D|7-----------------------|3-----------1------------|
[ Tab from: http://www.guitartabs.cc/tabs/l/lamb_of_god/laid_to_rest_tab_ver_4.html ]
Guitars 1 and 2  (Riff. 1)
e|------------------------|------------------------|
B|------------------------|------------------------|
G|------------------------|---repeat-2-times-------|
D|------------------------|------------------------|
A|------------------------|------------------------|
D|0---0-6-3-5-0---0-1-3-1-|0---0-6-3-5-0-1-3-5---3-|
                                       x x xp.h^

e|------------------------|------------------------|
B|------------------------|------------------------|
G|------------------------|---repeat-2-times-------|
D|------------------------|------------------------|
A|------------------------|------------------------|
D|0-0-0-6-3-5-0-0-0-1-3-1-|0-0-0-6-3-5-0-1-3-5---3-|
  x x x       x x x        x x x       x x xp.h^

                 Rhy. Fig. 2 (last 4 measures)

Guitar 1 and 2 do Rhy. Fig. 1(wich is only the first guitar), 2 times

Guitar 1 Plays Rhy. Fig. 1, 2 times
(Guitar 2)
e|------------------------|-------------------------|
B|------------------------|-------------------------|
G|7-----------------------|5-----------12-----------|
D|x-----------------------|x-----------x------------|
A|5-----------------------|3-----------10-----------|
D|------------------------|-------------------------|

e|------------------------|-------------------------|
B|------------------------|-------------------------|
G|11----------------------|5-----------3------------|
D|x-----------------------|x-----------x------------|
A|9-----------------------|3-----------1------------|
D|------------------------|-------------------------|

e|------------------------|-------------------------|
B|------------------------|-------------------------|
G|------------------------|-------------------------|
D|7-----------------------|5-----------8------------|
A|x-----------------------|x-----------x------------|
D|7-----------------------|5-----------8------------|

e|------------------------|-------------------------|
B|------------------------|-------------------------|
G|------------------------|-------------------------|
D|7-----------------------|3-----------1------------|
A|x-----------------------|x-----------x------------|
D|7-----------------------|3-----------1------------|

                   Riff. 1
Guitars 1 and 2
e|------------------------|------------------------|
B|------------------------|------------------------|
G|------------------------|------------------------|
D|------------------------|------------------------|
A|------------------------|------------------------|
D|1-1-1-1-1---1-1-1-1-1---|----1-1---1---1-1-1-1---|
  x x x x x   x x x x x        x x   x   x x x x
                          |------------------------------|
                        5 |------------------------------|
    second time           |------------------------------|
                        4 |------------------------------|
                          |------------------------------|
                          |----1-1---1---1-1-------------|
                               x x   x   x x
                    
                  Guitars 1 and 2(Rhy. Fig. 3)4 times

Guitar 1 plays Rhy. Fig. 3, 4 times
Guitar 2
e|------------------------|-------------------------|
B|------------------------|-------------------------|
G|------------------------|---repeat-4-times--------|
D|------------------3-----|-------------------------|
A|------6-5-3---------5-6-|-------------------------|
D|0-0-0-------0-0-0-------|0-0-0-8-5-4/7-8-7-10-7-8-|
  x x x       x x x        x x x
                          |--------------------------|
                          |--------------------------|
              last time   |--------------------------|
                          |4h5p4---4-----------------|
                          |-----6----5-6-3-5---3-----|
                          |------------------6---5-6-|

                               Riff. 1

e|------------------------|
B|------------------------|
G|------------------------|
D|------------------------|
A|------------------------|
D|0-1-3-5---3-0-4-7-7---4-|
  x x xp.h^   x x x   ^

Guitars 1 and 2
e|------------------------|------------------------|
B|------------------------|------------------------|
G|------------------------|------------------------|
D|------------------------|1-------1---1-------1---|
A|5-------5---5-------5---|------------------------|
D|--5-0-5---5---5-0-5---5-|--5-1-5---5---5-1-5---5-|
    x x x   x   x x x   x    x x x   x   x x x   x
e|------------------------|------------------------|
B|------------------------|---repeat-4-times-------|
G|------------------------|------------------------|
D|------------------------|------------------------|
A|------------------------|0-------0---0-------0---|
D|8-7-5-7-8-7-8-7-5-7-8-0-|--5-1-5---1---5-1-5---1-|
  x x x x x x x x x x x x    x x x   x   x x x   x

Guitar 1 and 2 play Rhy. Fig. 3 
Guitar 3
e|------------------------------------|
B|------------------13-------11-------|
G|15\14----12/14-------15-------14----|repeat 7 times
D|------12-------12-------12-------12-|let last note ring                    
A|------------------------------------|
D|------------------------------------|
| /    slide up 
| \    slide down
| h    hammer-on
| p    pull-off
| ~    vibrato
| +    harmonic
| x    Mute note
|p.h.  Pinch Harmonic
| ^    Bend
Comments