Lamb Of God - Laid To Rest Chords & Tabs

 

Laid To Rest Chords & Tabs

Lamb Of God Chords & Tabs

Version: 3 Type: Tab 0 ratings
1 star 2 stars 3 stars 4 stars 5 stars
comments

Laid To Rest Tab

Lamb of God
"Laid To Rest" - #1 from "Ashes of The Wake"
email: hollowseedaxeman@hotmail.com
Tuning - Dropped D
b/r= bend and release a half step
*= pinch harmonic


 intro
E|---------------------------------------------------------|
B|---------------------------------------------------------|
G|---------------------------------------------------------|
D|-------------------------3-------------------------------|
A|-/10\--------6-5-3---------5-6---------------------------|
D|-/10\--0-0-0-------0-0-0-------0-0-0-8-5-4/7-8-7-10-7-8--|
       pm.....       .....       .....

E|-------------------------------------------------------|
B|-------------------------------------------------------|
G|-------------------------------------------------------|
D|--------4h5p4---------8-7-5-4h5p4---4------------------|
A|--------------5-------------------6---5-6-3-5---3------|
D|--0-0-0---------0-0-0-------------------------6---5-6--|
  pm.....         .....

(repeat three times)                               (play for last time)
E|------------------------------------------------|----------------------|
B|------------------------------------------------|----------------------|
G|------------------------------------------------|----------------------|
D|------------------------------------------------|----------------------|
A|--2-2-2-2------2-2-2-2------2-2--2-2------------|--2-2--2-2------------|
D|--2-2-2-2-3*b--2-2-2-2-3*b--2-2--2-2-3-2-5-4-3--|--2-2--2-2-3-2-3-2-1--|
  pm.......      .......      ........               ........

 verse riff
E|---------------------------------------|
B|--------------------13-------11--------|
G|--15\14----12h14-------15-------14-----|
D|--------12-------12-------12-------12--|
A|---------------------------------------|
D|---------------------------------------|

[ Tab from: http://www.guitartabs.cc/tabs/l/lamb_of_god/laid_to_rest_tab_ver_3.html ]
 pre-chorus (let chords ring out)
E|--------------------------------------------------|
B|--------------------------------------------------|
G|--7---5---12--11---5---3--------------------------|
D|--x---x----x---x---x---x---7---5---8---7---3---1--|
A|--5---3---10---9---3---1---x---x---x---x---x---x--|
D|---------------------------7---5---8---7---3---1--|


 chorus
E|---------------------------------------------------------|
B|---------------------------------------------------------|
G|---------------------------------------------------------|
D|---------------------------------------------------------|
A|---------------------------------------------------------|
D|--0---0-6-3-5---0---0-1-3-1---0---0-6-3-5-0-1-3-5*b/r-3--|
                                          pm.....

 pre-last verse
E|-------------------------------------|
B|-------------------------------------|
G|-------------------------------------|
D|-------------------------------------|
A|-------------------------------------|
D|---0--1--3--5*b/r--3--0--4--7b/r--4--|


 last verse
E|-----------------------------------------------------|
B|-----------------------------------------------------|
G|-----------------------------------------------------|
D|----------------------------1-------1---1-------1----|
A|--5-------5---5-------5------------------------------|
D|----5-0-5---5---5-0-5---5-----5-1-5---5---5-1-5---5--|
    pm.....   .   .....   .     .....   .   .....   .

E|-----------------------------------------------------|
B|-----------------------------------------------------|
G|-----------------------------------------------------|
D|-----------------------------------------------------|
A|----------------------------0-------0---0-------0----|
D|--8-7-5-7-8-7-8-7-5-7-8-0-----5-1-5---1---5-1-5---1--|
  pm.......................     .....   .   .....   .

There ya go, the correct version of the song, enjoy!
Comments