Lamb Of God - Laid To Rest Chords & Tabs

 

Laid To Rest Chords & Tabs

Lamb Of God Chords & Tabs

Version: 2 Type: Bass Tab 0 ratings
1 star 2 stars 3 stars 4 stars 5 stars
comments

Laid To Rest Bass Tab

   
			     Laid to Rest (Bass Tab) - Lamb of God
----------------------------------------------------------------------------
THESE ARE 100% CORRECT. YOU MAY NOT BELIEVE IT, BUT I SAW CAMPBELL PLAY IT
ON THE DVD, YES IM RIGHT. NO I DONT HAVE A BAD EAR.

Tabbed By : [reclusive] PHILOSOPHER ... aka dflwol ... aka Max of Synonus
e-mail: wild_card1000@yahoo.com

Tuning: Drop D

SONG ORDER IS AS FOLLOWS:
INTRO
VERSE PT 1
VERSE PT 2
POST VERSE RIFF
MAIN RIFF THING
CHORUS
POST CHORUS
MAIN RIFF
CHORUS
BREAKDOWN
CHORUS
2 OPEN NOTES AFTER THE 3rd CHORUS
FAST PART BEFORE OUTRO
OUTRO

INTRO (0:00)
G|------------------------------------------------------------------|
D|------------------------------------------------------------------|
A|----------------------------------------------6---5-6-3-5---3-----|
E|-10\--0-----------------0-----------8-7-5-4h5---4---------6---5-6-|


VERSE, PART 1 (0:07)
***he bends a whole step, so you can also bend a half step on the 4th fret***

G|-------------------------------------------------|
D|-------------------------------------------------|
A|-------------------------------------------------|
E|-2-2-2-2-3b---2-2-2-2-3b-----2-2---2-2-3-2-5-4-3-|
        or 4b(1/2)   or 4b(1/2)                       x3


G|-------------------------------------------------|
D|-------------------------------------------------|
A|-------------------------------------------------|
E|-2-2-2-2-3b---2-2-2-2-3b-----2-2---2-2-3-2-3-2-1-|
        or 4b(1/2)   or 4b(1/2)                       x1


VERSE, PART 2 (0:21)

G|---------------------------------------------|
D|---------------------------------------------|
A|---------------------------------------------|
E|-0-0-0-0-0---0-0-0-0-0-----0-0---0---0-0-0-0-|
                                                                           x4

POST VERSE (0:35)

G|-------------------------------------------------|
D|-------------------------------------------------|
A|-------------------------------------------------|
E|-2-2-2-2-3b---2-2-2-2-3b-----2-2---2-2-3-2-5-4-3-|
        or 4b(1/2)   or 4b(1/2)                       x1

G|-------------------------------------------------|
D|-------------------------------------------------|
A|-------------------------------------------------|
E|-2-2-2-2-3b---2-2-2-2-3b-----2-2---2-2-3-2-3-2-1-|
        or 4b(1/2)   or 4b(1/2)                       x1


MAIN RIFF (0:42), (1:31)

G|----------------------------------------------------------------------|
D|----------------------------------------------------------------------|
A|-------6-5-3-------8-5-6--------------------------------------6-------|
E|-0-0-0-------0-0-0-------0-0-0-8-5-4-7-8-7-10-7-8-0-0-0-4h5p4---0-0-0-|

G|--------------------------------|
D|--------------------------------|
A|------------6---5-6-3-5---3-----|
E|--8-7-5-4h5---4---------6---5-6-|    x4


CHORUS (1:10), (1:58), (2:48)

G|----------------------------------------------------|
D|----------------------------------------------------|
A|----------------------------------------------------|
E|-0---0-6-3-5-0---0-1-3-1-0---0-6-3-5-0---0-1-3-5b-3-|
                                                           x2
[ Tab from: http://www.guitartabs.cc/tabs/l/lamb_of_god/laid_to_rest_btab_ver_2.html ]
G|----------------------------------------------------|
D|----------------------------------------------------|
A|----------------------------------------------------|
E|-0-0-0-6-3-5-0-0-0-1-3-1-0-0-0-6-3-5-0-0-0-1-3-5b-3-|
                                                           x2


POST CHORUS (1:23)

G|-------------------------------------------------|
D|-------------------------------------------------|
A|-------------------------------------------------|
E|-2-2-2-2-3b---2-2-2-2-3b-----2-2---2-2-3-2-5-4-3-|
        or 4b(1/2)   or 4b(1/2)                       x1

G|-------------------------------------------------|
D|-------------------------------------------------|
A|-------------------------------------------------|
E|-2-2-2-2-3b---2-2-2-2-3b-----2-2---2-2-3-2-3-2-1-|
        or 4b(1/2)   or 4b(1/2)                       x1


BREAKDOWN (2:12)

G|----------------------------------------------|
D|----------------------------------------------|
A|----------------------------------------------|
E|-1-1-1-1-1---1-1-1-1-1------1-1---1---1-1-1-1-|
                                                    x2

SEE WHO GIVES A FUCK (2:19)

G|----------------------------------------------|
D|----------------------------------------------|
A|----------------------------------------------|
E|-0-0-0-0-0---0-0-0-0-0------0-0---0---0-0-0-0-|
                                                    x7

G|---------------------------|
D|---------------------------|
A|---------------------------|
E|-0-0-0-0-0---0-0-0-0-0---0-|
                                 x1

Right After the 3rd chorus (3:02)
G|---------------|
D|---------------|
A|---------------|
E|-0-----------0-|     x1

FAST OUTRO PART BEFORE THE VERSE OUTRO (3:04)
***For this, I will write two ways to play. It comes down to how fast you can
play physically.***


THE "CORRECT" WAY

G|---------------------------------------------------------------------------
D|-------------------------1-------1---1-------1-----------------------------
A|-5-------5---5-------5-----------------------------------------------------
E|---5-0-5---5---5-0-5---5---5-1-5---5---5-1-5---5-8-7-5-7-8-7-8-7-5-7-8-7---
                                                                 continues...
G|-------------------------|
D|-------------------------|
A|-0-------0---0-------0---|
E|---5-1-5---5---5-1-5---5-|
                              x4


THE EASIER WAY

G|---------------------------------------------------------------------------
D|---------------------------------------------------------------------------
A|-5-------5---5-------5---6-------6---6-------6-----------------------------
E|---5-0-5---5---5-0-5---5---5-0-5---5---5-0-5---5-8-7-5-8-7-8-7-5-7-8-7-7-5-


G|---------------------|
D|---------------------|
A|---------------------|
E|-0-5-7-5-7-5-0-5-7-5-|  x4


OUTRO (same as verse part 2) (3:32)

G|---------------------------------------------|
D|---------------------------------------------|
A|---------------------------------------------|
E|-0-0-0-0-0---0-0-0-0-0-----0-0---0---0-0-0-0-|
                                                   x4


=============================================================================
Comments