Lamb Of God - Laid To Rest Chords & Tabs

 

Laid To Rest Chords & Tabs

Lamb Of God Chords & Tabs

Version: 1 Type: Bass Tab 0 ratings
1 star 2 stars 3 stars 4 stars 5 stars
comments

Laid To Rest Bass Tab

Lamb Of God
Laid to Rest.
Tabbed by:Matt MacKenzie
mattmackenzie60@hotmail.com
Intro 
|-----------------------------------|
|------4h5-4---4--------------------|
|------------6---5-6-3-5------------|
|-0~----------------------7-8-5-7---|

Verse 
Part A (0:07)
|--------------------------------------------|
|--------------------------------------------|4x
|--------------------------------------------|
|-2-2-2-2-3--2-2-2-2-3--2-2---2-2-3-2-5-4-3--|

Part B (0:21)
|---------------------------------------|
|---------------------------------------|4x
|---------------------------------------|
|-0-0-0-0-0--0-0-0-0-0--0-0--0--0-0-0-0-|

Verse part A x2 (0:36)
[ Tab from: http://www.guitartabs.cc/tabs/l/lamb_of_god/laid_to_rest_btab.html ]
Part C (0:42)
|----------------------------------------------------|
|----------------------------------------------------|
|-------6-5-3-------8-5-6----------------------------|
|-0-0-0-------0-0-0-------0-0-0-8-7-5-4-5-4/8-5-7----|___
                                                       __|4x
|-----------------------------------------------------|
|-------4h5p4---------8-7-5-4h5p4---4-----------------|
|-------------6-------------------6---5h6-3-6-3-5-----|
|-0-0-0---------0-0-0-----------------------------5/6-|

Chorus (1:10)
|-----------------------------------------------------|2x
|-----------------------------------------------------|
|-----------------------------------------------------|
|-0-----6-3-5--0-----1-3-1--0-----6-3-5--0-1-3-3-1----|

|-----------------------------------------------------|2x
|-----------------------------------------------------|
|-----------------------------------------------------|
|-0-0-0-6-3-5--0-0-0-1-3-1--0-0-0-6-3-5--0-1-3-3-1----|

Verse part A 2x (1:24)

Verse Part C 4x (1:30)

Chorus (1:58)

Bridge-Follow the bass drum just play E's (2:12) then switch to Ds after randy says,
"see who gives a ***," (2:19)


Chorus (2:48)


Outro (3:03)
|------------|---------|-----------|---------|------------|-----------|
|------------|---------|-----------|---------|------------|-----------|
|-5-------5--|5-------5|--------6--|6-------6|------------|-----------|
|---3-0-3---3|--3-0-3--|6-3-0-3---3|--3-0-3--|-8-7-5-7-8-7|8-7-5-7-8-7|

|------------|---------------| Play that 4x then end with Verse part B
|------------|---------------| 
|-0-------0--|0-------0------|
|---5-1-5---5|--5-1-5---5----|
Comments