Lamb Of God - Hourglass Chords & Tabs

 

Hourglass Chords & Tabs

Lamb Of God Chords & Tabs

Version: 6 Type: Tab 0 ratings
1 star 2 stars 3 stars 4 stars 5 stars
comments

Hourglass Tab

Pretty sure that most of the song is right. I have the Killadalphia movie of
Lamb Of God and in the extras Willie Adler plays some of Hourglass. I slowed
it down on my TV and looked at what notes he was playing. Hope you like it!!!
(I only tabbed one guitar through the whole song)

Hourglass by Lamb Of God
Tabbed by thedude22
Tuning - DADGBE
Song Time - 4:00

0:00-0:23                                           ___
E ---------------------------------------------|       |
B ---------------------------------------------|       |
G ---------------------------------------------|       |
D ---------------------------------------------|       |
A --------------7-8-------8-10-------3-7-6-2---|       |
D -0-0-0--0-0-0-----0-0-0------0-0-0-----------|       |
                                                       |
E ------------------------------------------------|    |
B -----------------------------------------10-9---|    |
G ------------------------------------10-9--------|    |
D ------------------------------------------------|    |
A --------------7-8-------8-12--------------------|    |
D -0-0-0--0-0-0-----0-0-0------0-0-0--------------|    |
                                                       |  Play all of this 
E ---------------------------------------------|       |        2x
B ---------------------------------------------|       |
G ---------------------------------------------|       |
D ---------------------------------------------|       |
A --------------7-8-------8-10-------3-7-6-2---|       |
D -0-0-0--0-0-0-----0-0-0------0-0-0-----------|       |
                                                       |
E --------------------------------------------------|  |
B --------------------------------------------------|  |
G --------------------------------------------------|  |
D ----------------------------------------5---------|  |
A --------------6-5-------5-4-----------------------|  |
D -0-0-0--0-0-0-----0-0-0-----0-0-0--0--0---0--0--0-|  |
                                            ^  ^  ^ ___|
0:23-0:43                          Play second time only 
E -----------------------------------------|
B -----------------------------------------|
G -----------------------------------------|
D ----------------------5----------8-7-6---|
A ---------6-5-----------------------------|
D -0--0--0-----0--0--0----0--0--0----------|

E -------------------------------------------------------------------------|
B -------------------------------------------------------------------------|
G -------------------------------------------------------------------------|
D -------------------------------------------------------------------------|
A ---------6-5-----5-4-----------------------6-5---------------------------|
D -0--0--0-----0--0----0--0--0--0--0--0--0--0----0--0--0--4--0--0--0--8-5-4|


E -------------------------------------------------------------------------|
B -------------------------------------------------------------------------|
G -------------------------------------------------------------------------|
D --------------------------------------------------------4-----------8-5-4|
A ---------6-5-----5-4-----------------------6-5---------------------------|
D -0--0--0-----0--0----0--0--0--0--0--0--0--0----0--0--0-----0--0--0-------|

E -------------------------------------------------------------------------|
B -------------------------------------------------------------------------|
G -------------------------------------------------------------------------|
D -------------------------------------------------------------------------|
A ---------6-5-----5-4-----------------------6-5---------------------------|
D -0--0--0-----0--0----0--0--0--0--0--0--0--0----0--0--0--4--0--0--0--8-5-4|

0:43-1:03
E ------------------------------------------------------|
B ------------------------------------------------------|
G ------------------------------------------------------|
D ------------------------------------------------------|
A -------------------13-10-12------13-10-12-----15-13---|
D -0--0--0--0--0-0-0---------0-0-0---------0--0---------|

E -----------------------------------------|
B -----------------------------------------|
G -----------------------------------------|
D -----------------------------------------|
A -------13-10-12---------12-10-8----------|
D -0-0-0----------0-0-0-8---------9--5-4---|

E -------------------------------------------|
B -------------------------------------------|
G -------------------------------------------|
D -------------------------------------------|
A -------13-10-12-------13-10-12------15-13--|
D -0-0-0---------0-0-0----------0--0---------|

E -------------------------------------------|
B -------------------------------------------|
G -------------------------------------------|
D -------------------------------------------|
A -------13-10-12----------13-12-10-7--5-4---|
D -0-0-0----------0-0-0-13-------------------|

E -------------------------------------------|
B -------------------------------------------|
G -------------------------------------------|
D -------------------------------------------|
A -------13-10-12-------13-10-12------15-13--|
D -0-0-0---------0-0-0----------0--0---------|

E -----------------------------------------|
B -----------------------------------------|
G -----------------------------------------|
D -----------------------------------------|
A -------13-10-12---------12-10-8----------|
D -0-0-0----------0-0-0-8---------9--5-4---|

E -------------------------------------------|
B -------------------------------------------|
G -------------------------------------------|
D -------------------------------------------|
A -------13-10-12-------13-10-12------15-13--|
D -0-0-0---------0-0-0----------0--0---------|

E -------------------------------------------|
B -------------------------------------------|
G -------------------------------------------|
D -------------------------------------------|
A -------13-10-12----------13-12-10-7--5-4---|
D -0-0-0----------0-0-0-13-------------------|

1:03-1:24
E ------------------------------------------------------------------|
B ------------------------------------------------------------------|
G ------------------------------------------------------------------|
D -------8--5-7---8--5-7--------------------8--5-7--10-10--8-8--7---|
A -------6--3-5---6--3-5--------------------6--3-5--8--8---6-6--5---|
D -0--0---------0---------0--0--0--0--0--0--------------------------|

E ----------------------------------------------------------|
B ----------------------------------------------------------|
G ----------------------------------------------------------|
D -8--5-7---8--5-7--------------------8--5-7--3-3--1-1--0---|
A -6--3-5---6--3-5--------------------6--3-5--3-3--1-1--0---|
D --------0---------0--0--0--0--0--0----------3-3--1-1--0---|

E ------------------------------------------------------------------|
B ------------------------------------------------------------------|
G ------------------------------------------------------------------|
D -8--5-7---8--5-7--------------------8--5-7--10-10--8-8--7---|
A -6--3-5---6--3-5--------------------6--3-5--8--8---6-6--5---|
D --------0---------0--0--0--0--0--0--------------------------|
[ Tab from: http://www.guitartabs.cc/tabs/l/lamb_of_god/hourglass_tab_ver_6.html ]
E ----------------------------------------------------------|
B ----------------------------------------------------------|
G ----------------------------------------------------------|
D -8--5-7---8--5-7--------------------8--5-7--3-3--1-1--0---|
A -6--3-5---6--3-5--------------------6--3-5--3-3--1-1--0---|
D --------0---------0--0--0--0--0--0----------3-3--1-1--0---|

1:24-2:07                                       ____
E --------------------------------------------|     |
B --------------------------------------------|     |
G --------------------------------------------|     |
D -----7--------------------7-----------------|     |
A -5-6------------------5-6-------------------|     |
D -------0--0--0--0--0--------0--0--0--0--0---|     |
                                                    |  Play 2x
E --------------------------------------------|     |
B --------------------------------------------|     |
G --------------------------------------------|     |
D --------------------------------------------|     |
A -5-6-4----------------5-6-3-----------------|     |
D -------0--0--0--0--0--------0--0--0--0--0---|     |
                                                ____|
E ---------------|
B ---------------|
G ---------------|
D ---------------|
A ---------------|
D -6-5-4-5-4-3---|
                                                ____
E --------------------------------------------|     |
B --------------------------------------------|     |
G --------------------------------------------|     |
D -----7--------------------7-----------------|     |
A -5-6------------------5-6-------------------|     |
D -------0--0--0--0--0--------0--0--0--0--0---|     |
                                                    |  Play 4x
E --------------------------------------------|     |
B --------------------------------------------|     |
G --------------------------------------------|     |
D --------------------------------------------|     |
A -5-6-4----------------5-6-3-----------------|     |
D -------0--0--0--0--0--------0--0--0--0--0---|     |
                                                ____|
E ---------------|
B ---------------|
G ---------------|
D ---------------|
A ---------------|
D -6-5-4-5-4-3---|

                                                ____
E --------------------------------------------|     |
B --------------------------------------------|     |
G --------------------------------------------|     |
D -----7--------------------7-----------------|     |
A -5-6------------------5-6-------------------|     |
D -------0--0--0--0--0--------0--0--0--0--0---|     |
                                                    |  Play 2x
E --------------------------------------------|     |
B --------------------------------------------|     |
G --------------------------------------------|     |
D --------------------------------------------|     |
A -5-6-4----------------5-6-3-----------------|     |
D -------0--0--0--0--0--------0--0--0--0--0---|     |
                                                ____|
2:07-2:32
E ---------------------------|
B ---------------------------|
G ---------------------------|
D ---------------------------|
A -------------6-5-4-8-7-6---|
D -6-5-4-5-4-3---------------|
                                           ____
E ---------------------------------------|     |
B ---------------------------------------|     |
G ---------------------------------------|     |
D ----------------------------11---------|     |
A ----------13----------12-13----13-12---|     |
D -12-13-12----13-12-0-------------------|     |
                                               |
E ---------------------------------|           |
B ---------------------------------|           |
G ---------------------------------|           |
D ---------------------------------|           |
A ----------13----------13-12-11---|           |
D -12-13-12----13-12-0-------------|           |
                                               |  Play 4x
E ---------------------------------------|     |    
B ---------------------------------------|     |
G ---------------------------------------|     |
D ----------------------------11---------|     |
A ----------13----------12-13----13-12---|     |
D -12-13-12----13-12-0-------------------|     |
                                               |
E ----------------------------------|          |
B ----------------------------------|          |
G ----------------------------------|          |
D ----------------------------------|          |
A ----------13----------------------|          |
D -12-13-12----13-12-5-9-5-8-7-3----|          |
                                           ____|                      
2:32-2:57                                                              ___ 
E -----------------------------------------------------------------------||
B -----------------------------------------------------------------------||
G -----------------------------------------------------------------------||x
D -0--------------1--------------3---------------------3-2-1-------------||4
A -0--------------1--------------3---------------4-5-4-------------------||
D -0--5-9-5-8-7-3-1--5-9-5-8-7-3-3--5-9-5-8-7-3--------------5-6-5-6-5-4-||
                                                                       ___|
2:57-3:10                         ___              
E ---------------------------------| |
B ---------------------------------| |
G ---------------------------------| |Play
D ---------------------------------| | 4x
A ---------------------------------| |
D -0-0-0-0-0-0-0-0-0-0-0-0-0-0-0---| |
                                  ___|
3:10-4:00
E --------|
B --------|
G --------|
D --------|
A --------|
D -11\0---|
  (Slide)
                                           ____
E ---------------------------------------|     |
B ---------------------------------------|     |
G ---------------------------------------|     |
D ----------------------------11---------|     |
A ----------13----------12-13----13-12---|     |
D -12-13-12----13-12-0-------------------|     |
                                               |
E ---------------------------------|           |
B ---------------------------------|           |
G ---------------------------------|           |
D ---------------------------------|           |
A ----------13----------13-12-11---|           |
D -12-13-12----13-12-0-------------|           |
                                               |  Play 6x
E ---------------------------------------|     |    
B ---------------------------------------|     |
G ---------------------------------------|     |
D ----------------------------11---------|     |
A ----------13----------12-13----13-12---|     |
D -12-13-12----13-12-0-------------------|     |
                                               |
E ----------------------------------|          |
B ----------------------------------|          |
G ----------------------------------|          |
D ----------------------------------|          |
A ----------13----------------------|          |
D -12-13-12----13-12-5-9-5-8-7-3----|          |
                                           ____|    

E ------------------------------|
B ------------------------------|
G ------------------------------|
D -0----------------------------|
A -0---let all the notes ring---|
D -0----------------------------|

Comments or Suggestions?  Want more songs tabbed by Lamb of God?
     IM me on AIM!!!  VoLcOmStOnEfRk777 or IMmeORelse11
Comments