Lamb Of God - Hourglass Chords & Tabs

 

Hourglass Chords & Tabs

Lamb Of God Chords & Tabs

Version: 5 Type: Tab 0 ratings
1 star 2 stars 3 stars 4 stars 5 stars
comments

Hourglass Tab

   
part of this is from a guitar world video i saw and part of it i figured out or re
arranged myself. Here you go.Enjoy

Drop D

|----------------------------------------------------------------|
|----------------------------------------------------------11-10-|
|-----------------------------------------------------10-9-------|
|----------------------------------------------------------------|
|----------7h8-----9h10--------------------7h8----9h10-----------|
|-000-000------000------000-3-6-5-3-000-000----000---------------|
pm... ...      ...      ...         ... ...    ...

|-------------------------------------------------------------------|
|-------------------------------------------------------------------|
|-------------------------------------------------------------------|
|-------------------------------------------------------------------|
|---------7h8----9h10-------------------6p5---4p3---2-0-4h5p4-------|
|-000-000-----000----000-3-6-5-3-000-000---000---000-----------0-0-0|
pm... ...     ...    ...         ... ...   ...   ...           . . .

Verse(x2)
|----------------------------------------------------------|
|----------------------------------------------------------|
|----------------------------------------------------------|
|------------------------9-8-7-----------------------------|
|------6-5-----7h8p7---------------6-5---5-4---------------|
|-0-0-0---0-0-0-----0-0-0-----0-0-0---0-0---0-0-0-0-0-0-0--|
pm. . .   . . .     . . .     . . .   . .   . . . . . . . 

|---------------------------------|
|---------------------------------|
|---------------------------------|
|---------------------------------|
|------6-5------------------------|
|-0-0-0---0-0-0-7h8p7-0-0-0-9-8-7-|
pm. . .   . . .       . . . 

A-0-0-2-1-0-|
D-0-0-2-1-0-|
pm. . . . .
|-------------------------------------------------------------------------|
|-------------------------------------------------------------------------|
|-------------------------------------------------------------------------|
|-------------------------------------------------------------------------|
|-----13-10h12------13-10h12--15-13-------1310h12---10-13-12-10--------|
|0-0-0---0-----0-0-0----0-----0-------0-0-0---0------0-------------9~~-7-5| x4
pm. .   .     . .    .     . .       . .   .     .     .
[ Tab from: http://www.guitartabs.cc/tabs/l/lamb_of_god/hourglass_tab_ver_5.html ]
|-----------------------------------------------------|
|-----------------------------------------------------|
|-----------------------------------------------------|
|-----8-5/7---8-5/7---------------8-5/7---1010--8-8---|
|-----6-3/5---6-3/5---------------6-3/5---8-8---6-6---|
|-0-0-------0-------0-0-0-0-0-0-0-------0-----0-----0-|
pm. .       .       . . . . . . .       .     .     .

|-----------------------------------------------------|
|-----------------------------------------------------|
|-----------------------------------------------------|
|-----8-5/7---8-5/7---------------8-5/7---------------|
|-----6-3/5---6-3/5---------------6-3/5---5-5---3-3---|
|-0-0-------0-------0-0-0-0-0-0-0-------0-5-5-0-3-3-0-|
pm. .       .       . . . . . . .       .     .     .

|-------------------------------------------------------------------------|
|-------------------------------------------------------------------------|
|-------------------------------------------------------------------------|
|-------7-------------7---------------------------------------------------|
|---5-6-----------5-6-----------5-6-4-----------5-6-3--(2x)---------------|
|-0--------0-0-0-0-----0-0-0-0-0-------0-0-0-0-0----------- 3-6-0-5-4-3---| 
pm.        . . . .     . . . . .       . . . . .            . . . . . . 
					                third x add this 
						              to the end.
|---------------------------------------------------------------------|
|---------------------------------------------------------------------|
|--------9--------------9---------------------------------------------|
|---7-8--7---------7-8--7----------7-8-6----------7-8-5---------------|
|---5-6------------5-6-------------5-6-4----------5-6-3---------------|
|-0-------0-0-0-0-0-------0-0-0-0-0-------0-0-0-0-0-----3-5-0-5-4-3---| 
pm.       . . . . .       . . . . .       . . . . .     . . . . . .



|0--3-6-0-5-4-3--1--3-6-0-5-4-3--3--3-6-0-5-4-3---------------------------|
|0--3-6-0-5-4-3--1--3-6-0-5-4-3--3--3-6-0-5-4-3-7-8-7-11-10-8-------------|
|0--3-6-0-5-4-3--1--3-6-0-5-4-3--3--3-6-0-5-4-3---------------3-6-0-5-4-3-|
    . . . . . .     . . . . . .     . . . . . .               . . . . . .


|--------------------------------------------------------------------------|
|--------------------------------------------------------------------------|
|----------------6--------------------------------------------------6------|
|-----7------7-8---8-7--------7-------5-7-8-7-5--------7--------7-8---8-7--|
|-------8-7-8-------------------8-7-8---------------------8-7-8------------|
|0-0-0-----------------0-0-0--------------------0-0-0----------------------|
. . .                  . . .                    . . .

|---------------------------------|
|---------------------------------|
|---------------------------------|
|-------7-------------------------|
|---------7-8---------------------|
|-0-0-0---------3-6-0-5-4-3-------|
  . . .         . . . . . .


The ending is some of these riffs 
Played on top of one another.
Figure it out yourself.
Comments