Lamb Of God - Hourglass Chords & Tabs

 

Hourglass Chords & Tabs

Lamb Of God Chords & Tabs

Version: 1 Type: Tab 3 ratings
1 star 2 stars 3 stars 4 stars 5 stars
comments

Hourglass Tab


                   riff 1  drop d tuning

           e---------------------------------------------------------e
           b---------------------------------------------------------b
           g---------------------------------------------------------g
           d---------------------------------------------------------d
           a---------------7/8-----------8/10------------------------a        
           d-0-0-0-0-0-0----------0-0-0-----------0-0-0---3--7/6--2--d   

[ Tab from: http://www.guitartabs.cc/tabs/l/lamb_of_god/hourglass_tab.html ]
          e------------------------------------------------------------------e
          b---------------------------------------------------------10-9-----b          
          g------------------------------------------------10-9-10-/14-13----g
          d------------------------------------------------------------------d
          a-----------------7/8------------8/12------------------------------a
          d-0-0-0-0-0-0------------0-0-0-----------0-0-0---------------------d     


          e----------------------------------------------------------------------e
          b----------------------------------------------------------------------b
          g----------------------------------------------------------------------g
          d----------------------------------------------------------------------d
          a----------------------------------------------------------------------a
          d-0-0-0-0-0-0---13/12----0-0-0---12/11-----0-0-0-----0---13---16/17\16-d
          

          this is my first tab so if you have any revisions e mail me at calebh007@hotmail.com
          im sure this is 100% correct,i got it out of a book.
          
Comments