Lamb Of God - Black Label Chords & Tabs

 

Black Label Chords & Tabs

Lamb Of God Chords & Tabs

Version: 1 Type: Bass Tab 0 ratings
1 star 2 stars 3 stars 4 stars 5 stars
comments

Black Label Bass Tab

Lamb Of God - Black Label
Tabbed By: Jim Saavedra
EMail: Thorianite@aol.com


||-------------------------------------------------------------------||
||-------------------------------------------------------------------||
||-------------------------------------------------------------------||
||-0-0-0-------(repeat)----------------------------------------------||
   
chorus:
||-------------------------------------------------------------------||
||-------------------------------------------------------------------||
||-------------------------------------------------------------------||
||-0-0-0-1p0-0-3p0-4p0-3p0--0-1p0--(repeat)--------------------------||
[ Tab from: http://www.guitartabs.cc/tabs/l/lamb_of_god/black_label_btab.html ]
Bridge 1:
||-------------------------------------------------------------------||
||-------------------------------------------------------------------||
||-------------------------9/10--9--------7/8--7---------------------||
||-0--1-3-4(3x's)---0-0-0-----------0-00-----------------------------||
                    
Bridge 2:
||-------------------------------------------------------------------||
||-------------------------------------------------------------------||
||-------------------------------------------------------------------||
||-------------------------------------------------------------------||
||---------9/10--9--------7/8--7-------------------------------------||
||--0-0-0-----------0-00---------------------------------------------||
    
Breakdown 1:
||-------------------------------------------------------------------||
||-------------------------------------------------------------------||
||-------------------------------------------------------------------||
||-000-000-000-000-000-000-000-000-000-000-000-000-000-000-000-000---||

breakdown 2:
||-------------------------------------------------------------------||
||-------------------------------------------------------------------||
||-------------------------------------------------------------------||
||-0-0-0-0000-0-0-0-0000-0-0-0-0000-0-0-0-0000-0-0-0-0000-0-0-0-0000-||

Bridge 3:
||-------------------------------------------------------------------||
||-------------------------------------------------------------------||
||-------------------------9/10--9--------7/8--7---------------------||
||-0--1-3-4(3x's)---0-0-0-----------0-00-----------------------------||
                    
chorus:
||-------------------------------------------------------------------||
||-------------------------------------------------------------------||
||-------------------------------------------------------------------||
||-0-0-0-1p0-0-3p0-4p0-3p0--0-1p0--(repeat)--------------------------||

Bridge 4:
||-------------------------------------------------------------------||
||-------------------------------------------------------------------||
||---------9/10--9--------7/8--7-------------------------------------||
||--0-0-0-----------0-00-----------------0(let ring)-----------------||
   
Outro:
||-------------------------------------------------------------------||
||-------------------------------------------------------------------||
||---------7-7-7----------5-5----------------------------------------||
||--0-0-0--------0-6-6--0--------------------------------------------||
Comments