Lamb Of God - Ashes Of The Wake Chords & Tabs

 

Ashes Of The Wake Chords & Tabs

Lamb Of God Chords & Tabs

Version: 2 Type: Tab 0 ratings
1 star 2 stars 3 stars 4 stars 5 stars
comments

Ashes Of The Wake Tab

   
-------------------------------------------------------------------------------
                     Ashes of the Wake - Lamb of God
-------------------------------------------------------------------------------
Tabbed by: Victor Fernandez
Email: rapblows@gmail.com

Tuning: Drop D (D A D B G E)


|---------------------------------------------------|
|---------------------------------------------------|
|---------------------------------------------------|
|-------------------------1-----0-----------8--ring-|
|-------4h5h7-8p7p5---------3-2---1-0-------6let----|
|-000-0-------------0-000-------------0-000---------|
  ... .             . ... . . . . . . . ...

|-------------------------------------1-0-----------|
|-----------------------------------------2-2h3p2---|
|-------------------------------------------------3-|
|-------------------------1-----0-------------------|
|-------4h5h7-8p7p5---------3-2---1-0---------------|
|-000-0-------------0-000---------------------------|
  ... .             . ... . . . . . . 
[ Tab from: http://www.guitartabs.cc/tabs/l/lamb_of_god/ashes_of_the_wake_tab_ver_2.html ]
|---------------------------------------------------|
|---------------------------------------------------|
|---------------------------------------------------|
|-------------------------1-----0-----------8--ring-|
|-------4h5h7-8p7p5---------3-2---1-0-------6let----|
|-000-0-------------0-000-------------0-000---------|
  ... .             . ... . . . . . . . ...

                            1_________________________  2___________________ 
                            /                           /                                  
                           /                           /
|---------------------------------------------------||-1-0-----------------------|
|---------------------------------------------------||-----2-2h3p3---------------|
|--------------------------------------------------*||-------------3-0-----------|
|--------------------------------------------------*||-----------------4-1-------|
|-------4h5h7-8p7p5-------------------------1--ring-||---------------------------|
|-000-0-------------0-000-8-5-4-7-4-3-0-000-1let----||---------------------3fb-1-|
  ... .             . ... . . . . . . . ...


| /  slide up
| \  slide down
| h  hammer-on
| p  pull-off
| fb full bend
| hb half bend
| ~  vibrato
| +  harmonic
| x  Mute note
===============================================================================
Comments